>
 >
Liar

Liar Guitar Tabs

Tonic - Liar chords, tabs, tablatures, lyrics

Guitar lessons | Add/correct | Request | Top 50 tabs Artists:  A B C D E F G H I J K L M N O P Q R S T U V W X Y Z 0-9

Liar Guitar Tabs – Tonic

CD, Sheet music, Poster

Do you like Liar? Share with your friends now
TabsTabs v2
Tonic - "Liar"
Standard Tuning

This is one of the few songs by Tonic in standard tuning & not using
a capo, and its still has good rock riffs. Please rate/comment.

Intro - play 4x
e|----------------------------|
B|----------------------------|
G|-2---------2----------2-----|
D|-2----2--2-2----2--2--2-----|
A|-0----2--2-0----2--2--0-----|
E|---3--0--0---3--0--0----3-0-|


Verse 1 - Bass only


(0:18) Wah Guitar, w/ echo   (0:24)
e|--------------|          --------------|
B|-12\----------|          -15~~\--------|
G|-12\----------|          --------------|
D|--------------|          --------------|
A|--------------|          --------------|
E|--------------|          --------------|


Chorus 1 - play 2x
e|--------------|--------------|---------------|---------------|
B|-------5--5---|-------5--5---|---------------|---------------|
G|-6-----6--6---|-------6--6---|---------------|---------------|
D|-6------------|-7------------|-2-------------|-4-------------|
A|-4------------|-7------------|-2-------------|-4-------------|
E|--------------|-5------------|-0-------------|-2-------------|


Chorus Ending
e|----------|----------------------------|
B|----------|----------------------------|
G|-2--------|-2---------2----------2-----|
D|-2--------|-2----2--2-2----2--2--2-----|
A|-0--------|-0----2--2-0----2--2--0-----|
E|----------|---3--0--0---3--0--0----3-0-|



Verse 2 - Electric Guitar plays:
e|-------------------------|
B|-------------------------|
G|-------------------------|
D|---------2p0-------0---2-|
A|-------------------------|
E|-0-3p0-------0-3p0---0---|


Play Chorus Again


Solo - other guitar plays Intro 3x
e|--------|--------|---------|
B|--------|--------|-12~--\--|
G|--------|--------|-12~--\--|
D|--------|--------|-14~--\--|
A|-rest---|-rest---|---------|
E|--------|--------|---------|

   Rhythm: A5                                  E5
e|------------------------------------------|-10/12~--------------|
B|-----------------9-9-9/11-11-11-/15-15-15-|---------------------|
G|-9-9-9-/12-12-12--------------------------|---------------------|
D|-----------------7-7-7/9--9--9--/12-12-12-|---------------------|
A|-7-7-7-/10-10-10--------------------------|---------------------|
E|------------------------------------------|---------------------|

   A5                                       E5 (continue similarly)
e|---------------------------------------|-----------------------|
B|-14p12--14p12--14p12--14p12--14qb-14qb-|-12~--------------x/---|
G|-14p12--14p12--14p12--14p12--14qb-14qb-|-12~--------------x/---|
D|------14-----14-----14-----14----------|-----------------------|
A|---------------------------------------|-----------------------|
E|---------------------------------------|-----------------------|

e|------15-----15-----15-----15-------------|-15p12~-------------|
B|-15b17--15b17--15b17--15b17--15b17--15p12-|--------------------|
G|------------------------------------------|--------------------|
D|------------------------------------------|--------------------|
A|------------------------------------------|--------------------|
E|------------------------------------------|--------------------|

                                                  * Chorus plays again:
e|-------------------|--------------------------|-----------|-----------|
B|-------------------|--------------------------|-5---------|-5---------|
G|-------------------|--------------------------|-6---------|-6---------|
D|----------------5--|-7b8---7b8---b8r7p5---5-5-|-----------|-7---------|
A|-7--------5--7-----|--------------------7-----|-----------|-----------|
E|----3--5-----------|--------------------------|-----------|-----------|


Continue Chorus

Play Intro until end with wah guitar random notes



KEY
************************************

| /   slide up
| \   slide down
| h   hammer-on
| p   pull-off
| ~   vibrato
| +   harmonic
| x   Mute note
| b   Bend
| r  Bend release

************************************





Comments


Popular Tonic tabs & chords
Daffodil Chords
Mean To Me Chords
Waltz With Me Chords
Come Rest Your Head Tabs
If You Could Only See (Acoustic) Tabs
If You Could Only See 2 Tabs
Thick 1 Tabs
Flower Man Ukulele
Let Me Go Ukulele
Open Up Your Eyes Ukulele


Song lyrics



↑ Back to top | Tablatures and chords are parodies/interpretations of the original songs. You may use it for private study, scholarship, research or language learning purposes only
© 2014 AZChords.com Contact us | Privacy policy | DMCA | Add/correct tabs | Request tabs | Top 50 tabs