>
 >
Lemon Parade

Lemon Parade Guitar Tabs

Tonic - Lemon Parade chords, tabs, tablatures, lyrics

Guitar lessons | Add/correct | Request | Top 50 tabs Artists:  A B C D E F G H I J K L M N O P Q R S T U V W X Y Z 0-9

Lemon Parade Guitar Tabs – Tonic

CD, Sheet music, Poster

Do you like Lemon Parade? Share with your friends now
ChordsTabsUkulele
Tonic - Lemon Parade

Acoustic - Standard Tuning, but Capo 4th Fret 
Electric - Standard Tuning


Intro
   Electric                                          * hold slide then play next note delayed
e|-------------|-7--7-7----x-5---x---|-----4----4--4----------------|---7---7---x-5---x-|
B|----------4h5|-7--7-7----x-5---x---|-4h5-5----5--5----------------|---7---7---x-5---x-|
G|-------4-----|-8--8-8----x-6---x---|-4-----4--4--4------4---------|---8---8---x-6---x-|
D|-6--7--------|-9--9-9------7-------|-4h6---6------*6/7----6h7p6-4-|---9---9-----7-----|
A|-------------|-9--9-9------7-------|-7----------------------------|---9---9-----7-----|
E|-------------|-7--7-7------5-------|-0----------------------------|---7---7-----5-----|
 |
 | Acoustic (capo 4th fret)
 |-------------|-3----3--x-x-1---0-0-|-0----0-0-0---0---------------|-3-3---3---1-1---0-|
 |----------0h1|-3----3--x-x-1---1-1-|-1----1-1-1---1---------------|-3-3---3---1-1---0-|
 |-------0-----|-4----4--x-x-2-------|-0----0-0-0---0----0----------|---4---4-----2---0-|
 |-2--3--------|-5----5--x-x-3-------|-0h2--2-2-2---2-2/3---2h3p2-0-|---5---5-----3---0-|
 |-------------|---------------------|------------------------------|-------------------|
 |-------------|---------------------|------------------------------|-------------------|



Verse, including end of Intro Riff (Capo 4th fret on acoustic)
   Electric
|-4------------------------|--------------------|------------------------|
|-5------------------------|-----4-------4h5--5-|-4---4-------5-----5----|
|-4----------------------4-|-----4-------4----4-|-4---4-----4-----4------|
|-6------------------------|-----4-------4h6--6-|-4---4---7-----6-----4--|
|-7------------------------|--------------------|------------------------|
|-0------------------------|-7-----------7------|------------------------|
|
| Acoustic
|-0------------------------|-----3---3-3-3-----3-3-|-3----3--3-----------------|
|-1-----------1------1-----|-----0-------0h1---1-0-|-0----0--0-----0-----0-----|
|-0---------0------0-----0-|-----0-------0-----0-0-|-0----0--0---0-----0-----0-|
|-0h2-----2------3-----0---|-----0-------0h2---2-0-|-0----0--0-3-----2-----0---|
|--------------------------|-----------------------|---------------------------|
|--------------------------|-----------------------|---------------------------|


  Electric
 |--------------------------|---------------------------------|-----------7------| 
 |--------5----------5------|----------5----------5-----5-----|---------5--------|
 |------4---------4---------|-------4-----------4-----4-------|---4--------------|
 |-2----------6h7-------7p6-|-------6---------6-----7-----4---|---4--------------|
 |--------------------------|---------------------------------|------------------|
 |--------------------------|---------------------------------|------------------|
 |
 |
e|------3-3---1-1----1------|-0-------------0-----------------|---3---3------3---|
B|------1-1-------1-----1---|----1----------1-----1-----1---0-|---0---0h1----1p0-|
G|------0-0---------0-----0-|----0--0-----0-----0-----0-------|---0---0------0---|
D|------2-2-----------------|-------2--2--2---2-----3-----0---|---0---0h2----2p0-|
A|-3------------------------|---------------------------------|------------------|
E|--------------------------|---------------------------------|------------------|



|--------------------------|---------------------------|-----------------------------|
|------4---------5----5----|--------------5-----5------|-----------5-----5-----5-----|
|------4-------4----4------|-----4---------------------|---------4-----4-----4-------|
|------4-----7----6----4---|-----6----7------7-----7-6-|-------6-----6-----7-----4---|
|------6-------------------|-7---7---------------------|-7-----7---------------------|
|--------------------------|---------------------------|-----------------------------|
 |
 |
e|-3---3-------------------|-----3-3-------1----1----1-|-0---------------------------|
B|-0---0----0----0----0--1-|-1---1-1----1----1----1----|---1-------1-----1-----1---0-|
G|-0---0--0----0----0------|-0---0-0--0---0----0----0--|-----0---0-----0-----0-------|
D|-0---0-----3----2----0---|-2-------------------------|-------2-----2-----3-----0---|
A|-------------------------|-3-------------------------|-----------------------------|
E|-------------------------|---------------------------|-----------------------------|



 |-----------------7---|----------------4-----4------|--------------------------| 
 |---4-------4h5-------|-------4---------------------|----------------5---------|
 |---4---4---4-------4-|-------4---------------------|------4-------------4-----|
 |---4-------4h6-------|-------4-----7-----6-----4---|-4h6--------4h6-------6h7-|
 |---------------------|-----------------------------|--------------------------|
 |---------------------|-----------------------------|--------------------------|
 |
 |
e|---3---3-3-------3-3-|-3---3-3---------------------|------3-3---1-1-----1-----|
B|---0---0-0-0h1---1-0-|-0---0-0----0----0-----1---1-|-(1)--1-1-------1-----1---|
G|---0---0-0-0-----0-0-|-0---0-0--0----0-----0-------|------0-0---------0-----0-|
D|---0---0-0-0h2---2-0-|-0---0-0-----3-----2-----0---|------2-2-----------------|
A|---------------------|-----------------------------|--------------------------|
E|---------------------|-----------------------------|--------------------------|

   Electric
 |-------------------------------|------------------------|---------------------------|
 |------5---5---------5-----5----|-4---4--4----4h5-5-5p4--|-----4-----------5----5----|
 |------4-----------4-----4------|-4---4--4----4---4-4----|-----4---------4----4------|
 |-6--------------6-----7-----4--|-4---4--4----4h6-6-6p4--|-----4-------7----6-----4--|
 |-------------------------------|------------------------|---------------------------|
 |-------------------------------|------------------------|---------------------------|
 |
 |
e|-0------------------------0----|-----------------3-3----|----------------------3----|
B|---1--1-1------1----1-----1---0|-0---0--0-0--0h1-1-0----|-0---0-0----0----1-------1-|
G|--------0-0--0----0-----0------|-0---0--0-0--0---0-0----|-0---0-0--0----0----0------|
D|----------2-----2-----3-----0--|-0---0--0-0--0h2-2-0----|-0---0-0-----3----2----0---|
A|-------------------------------|------------------------|---------------------------|
E|-------------------------------|------------------------|---------------------------|

  Electric
 |-----------------------|---------------------|
 |------------5--5-------|-----------------4h5-|
 |----4------------------|--------------4------|
 |----6---6h7------7-7h6-|--------6--7---------| 
 |-7--7------------------|-7-------------------|
 |-----------------------|-0-------------------|
 |
 |
e|----3-3--1-1-----1-----|-0-------------------|
B|----1-1------1-----1---|-1---------------0h1-|
G|----0-0--------0-----0-|-0------------0------|
D|----2-2----------------|-2------2--3---------|
A|-----------------------|-3-------------------|
E|-----------------------|---------------------|




Chorus
    Acoustic (Capo 4th fret)
g#|------3--3-3-x-1--3---|------0---0----0-----------|-3---3-3---x-1--0--|
D#|-0----3--3-3-x-1--3---|-0h1--1---1----1-------0h1-|-0---0-0---x-1--0--|
B |-0----4--4-4-x-2--4---|-0------0-0----------0-----|-0---0-0---x-2--0--|
F#|-0----5--5-5---3--5---|-0h2----2-2------2-3-------|-0---0-0-----3--0--|
C#|------5--5-5------5---|---------------------------|-2---2-2-----3-----|
G#|------3--3-3------3---|---------------------------|-3---3-3-----1--3--|
  |
  | Electric
e||-2----2--2-x---0--0----|-4---4-4-4----4-----------|-2---2-2-----0--2--|
B||-4----4--4-x---2--4----|-5---5-5-5--5-5-------4h5-|-4---4-4-----2--4--|
G||-4----4--4-x---2--4----|-4---4-4-4--4-4-----4-----|-4---4-4-----2--4--|
D||-4----4--4-x---2--4----|-4h6-6-6-6--6-6-6-7-------|-4---4-4-----2--4--|
A||-2----2--2-x---0--2----|--------------------------|-2---2-2-----0--2--|
E||-----------------------|--------------------------|-------------------|


   Acoustic
||-0----0-0-0----0-----------|-3---3--x--1--3--|-----0----0--0---------------|
||-0h1--1-1-1------------0h1-|-3---3--x--1--3--|-0h1-1----1--1---------------|
||-0h2--2-2-2----------0-----|-4---4--x--2--4--|-0-----0--0-------0----------|
||-0h2--2-2-2------2-3-------|-5---5-----3--5--|-0h2---2--2----2h3---2h3p2-0-|
||-0----0-0-0----------------|-5---5-----3--5--|-----------------------------|
||---------------------------|-3---3-----1--3--|-----------------------------|
 |
 | 
e|-4----4-4-4----4-----------|-2---2-2---0--2--|-4---4-4-4--4----------------|
B|-5----5-5-5------------4h5-|-4---4-4---2--4--|-5---5-5-5-------------------|
G|-6----6-6-6--6-------4-----|-4---4-4---2--4--|-4---4-4-4--------4----------|
D|-6----6-6-6------6-7-------|-4---4-4---2--4--|-4h6-6-6-6-----6h7---6h7p6-4-|
A|-4----4-4-4----------------|-2---2-2---0--2--|-----------------------------|
E|---------------------------|-----------------|-----------------------------|


g#|-3---3-3---x-1--x-x-|-----------------|
D#|-3---3-3---x-1--x-x-|-1---------------|
B |-4---4-4---x-2--x-x-|-0---------------|
F#|-5---5-5-----3------|-2---------------|
C#|-5---5-5-----3------|-3---------------|
G#|-3---3-3-----1------|-----------------|
  |
  | Acoustic
e||-2--2-2------0--x---|-0----------------|
B||-4--4-4------2--x---|-0----------------|
G||-4--4-4------2--x---|-1----------------|
D||-4--4-4------2--x---|-2----------------|
A||-2--2-2------0--x---|-2----------------|
E||--------------------|-0----------------|


Verse 2 is similar to the previous verse, but some hammer-on and pull off notes differ.


Pre-Solo/Solo (2 Overdub Guitar parts written for one):
  slowly release bend
e|--------------------|----------------------|----------------------|
B|-0__________--------|----5/7--7-----5---7--|-7h9p7----------------|
G|-2b______gr2--------|----6/8--8-----6---8--|-8h9p8--9-------9--9--|
D|--------------------|----------------------|--------9-------9--9--|
A|--------------------|----------------------|----------------------|
E|--------------------|----------------------|----------------------|

e|--------------------|----------------------|----------------------|
B|-5/7--7-----5---7---|-7h9h7--7p5h7---5--5--|----5/7--7-----5---7--|
G|-6/8--8-----6---8---|-8h9p8--6-------6--6--|----6/8--8-----6---8--|
D|--------------------|----------------------|----------------------|
A|--------------------|----------------------|----------------------|
E|--------------------|----------------------|----------------------|

e|--------------------|-----------------------------|---------------12NH---|
B|-7h9p7--------------|-----7----7-----10---7-------|----------12NH--------|
G|-8h9p8--9-----9--9--|-----9b11-9b11____---9b11r9--|-7~~~-----------------|
D|--------9-----9--9--|-----------------------------|----------------------|
A|--------------------|-----------------------------|----------------------|
E|--------------------|-----------------------------|----------------------|


Play Chorus to end song



KEY:

| /  slide up
| \  slide down
| h  hammer-on
| p  pull-off
| ~  vibrato
| b  string bend
| r  release of bent string
|()  hold note in next bar
| __ hold note while playing next note





Comments


Popular Tonic tabs & chords
Waiting For The Light To Change Bass Tabs
If You Could Only See (Acoustic) Chords
Ring Chords
Sugar Chords
Celtic Aggresion Tabs
You Wanted More 2 Tabs
Count On Me Ukulele
Do You Know 2 Ukulele
On Your Feet Again Ukulele
Sugar Ukulele


Song lyrics



↑ Back to top | Tablatures and chords are parodies/interpretations of the original songs. You may use it for private study, scholarship, research or language learning purposes only
© 2014 AZChords.com Contact us | Privacy policy | DMCA | Add/correct tabs | Request tabs | Top 50 tabs