>
 >
Jump Jimmy (Stronger Than Mine)

Jump Jimmy (Stronger Than Mine) Guitar Tabs

Tonic - Jump Jimmy (Stronger Than Mine) chords, tabs, tablatures, lyrics

Guitar lessons | Add/correct | Request | Top 50 tabs Artists:  A B C D E F G H I J K L M N O P Q R S T U V W X Y Z 0-9

Jump Jimmy (Stronger Than Mine) Guitar Tabs – Tonic

CD, Sheet music, Poster

Do you like Jump Jimmy (Stronger Than Mine)? Share with your friends now
Tabs
song      : jump jimmy (stronger than mine)
artist    : tonic


standard tuning, capo on 1st fret
chords relative to capo


INTRO - after you play the picked notes, strum the chord in ()'s.
        listen to the song for the rhythm.

e--|--------------------------------|--------------------------------|
b--|--------------------------------|---(1)--------------------------|
g--|--------------------------0-----|---(0)--------------------------|
d--|--------------------------------|---(2)------------------0-------|
a--|--------------------0h1h2-----3-|---(3)--------------2h3---1-----|
E--|--------------------------------|------------------------------3-|
    ^   ^   ^   ^   ^   ^   ^   ^    ^   ^   ^   ^   ^   ^   ^   ^    
    1       2       3       4        1       2       3       4        

e--|--------------------------------|--------------------------------|
b--|---(0)--------------------------|---(1)--------------------------|
g--|---(0)--------------------0-----|---(0)--------------------------|
d--|---(0)--------------------------|---(2)------------------0-------|
a--|---(x)--------------0h1h2-----3-|---(3)--------------2h3---1-----|
E--|---(3)--------------------------|------------------------------3-|
    ^   ^   ^   ^   ^   ^   ^   ^    ^   ^   ^   ^   ^   ^   ^   ^    
    1       2       3       4        1       2       3       4        


VERSE

    pm ===============================================
e--|--------------------------------|--------------------------------|
b--|--------------------------------|--------------------------------|
g--|--------------------------------|--------------------------5-----|
d--|5-5-5-5-5-5-5-5-5-5-5-5-5-5-5-5-|5-5-5-5-5-5-5-5-5---3-----5-----|
a--|5-5-5-5-5-5-5-5-5-5-5-5-5-5-5-5-|5-5-5-5-5-5-5-5-5---3-----3-----|
E--|3-3-3-3-3-3-3-3-3-3-3-3-3-3-3-3-|3-3-3-3-3-3-3-3-3---1-----------|
    ^   ^   ^   ^   ^   ^   ^   ^    ^   ^   ^   ^   ^   ^   ^   ^    
    1       2       3       4        1       2       3       4        


    pm =============================================================
e--|--------------------------------|--------------------------------|
b--|--------------------------------|--------------------------------|
g--|--------------------------------|--------------------------------|
d--|5-5-5-5-5-5-5-5-5-5-5-5-5-5-5-5-|5-5-5-5-5-5-5-5-5-5-5-5-5-5-5-5-|
a--|5-5-5-5-5-5-5-5-5-5-5-5-5-5-5-5-|5-5-5-5-5-5-5-5-5-5-5-5-5-5-5-5-|
E--|3-3-3-3-3-3-3-3-3-3-3-3-3-3-3-3-|3-3-3-3-3-3-3-3-3-3-3-3-3-3-3-3-|
    ^   ^   ^   ^   ^   ^   ^   ^    ^   ^   ^   ^   ^   ^   ^   ^    
    1       2       3       4        1       2       3       4        


    pm =============================================================
e--|--------------------------------|--------------------------------|
b--|--------------------------------|--------------------------------|
g--|5-5-5-5-5-5-5-5-5-5-5-5-5-5-5-5-|5-5-5-5-5-5-5-5-5-5-5-5-5-5-5-5-|
d--|5-5-5-5-5-5-5-5-5-5-5-5-5-5-5-5-|5-5-5-5-5-5-5-5-5-5-5-5-5-5-5-5-|
a--|3-3-3-3-3-3-3-3-3-3-3-3-3-3-3-3-|3-3-3-3-3-3-3-3-3-3-3-3-3-3-3-3-|
E--|--------------------------------|--------------------------------|
    ^   ^   ^   ^   ^   ^   ^   ^    ^   ^   ^   ^   ^   ^   ^   ^    
    1       2       3       4        1       2       3       4        

    pm ===============================================
e--|--------------------------------|--------------------------------|
b--|--------------------------------|--------------------------------|
g--|--------------------------------|--------------------------5-----|
d--|5-5-5-5-5-5-5-5-5-5-5-5-5-5-5-5-|5-5-5-5-5-5-5-5-5---3-----5-----|
a--|5-5-5-5-5-5-5-5-5-5-5-5-5-5-5-5-|5-5-5-5-5-5-5-5-5---3-----3-----|
E--|3-3-3-3-3-3-3-3-3-3-3-3-3-3-3-3-|3-3-3-3-3-3-3-3-3---1-----------|
    ^   ^   ^   ^   ^   ^   ^   ^    ^   ^   ^   ^   ^   ^   ^   ^    
    1       2       3       4        1       2       3       4        

    pm ===============================================
e--|--------------------------------|--------------------------------|
b--|--------------------------------|--------------------------------|
g--|--------------------------------|--------------------------5-----|
d--|5-5-5-5-5-5-5-5-5-5-5-5-5-5-5-5-|5-5-5-5-5-5-5-5-5---3-----5-----|
a--|5-5-5-5-5-5-5-5-5-5-5-5-5-5-5-5-|5-5-5-5-5-5-5-5-5---3-----3-----|
E--|3-3-3-3-3-3-3-3-3-3-3-3-3-3-3-3-|3-3-3-3-3-3-3-3-3---1-----------|
    ^   ^   ^   ^   ^   ^   ^   ^    ^   ^   ^   ^   ^   ^   ^   ^    
    1       2       3       4        1       2       3       4        

    pm =============================================================
e--|--------------------------------|--------------------------------|
b--|--------------------------------|--------------------------------|
g--|5-5-5-5-5-5-5-5-5-5-5-5-5-5-5-5-|5-5-5-5-5-5-5-5-5-5-5-5-5-5-5-5-|
d--|5-5-5-5-5-5-5-5-5-5-5-5-5-5-5-5-|5-5-5-5-5-5-5-5-5-5-5-5-5-5-5-5-|
a--|3-3-3-3-3-3-3-3-3-3-3-3-3-3-3-3-|3-3-3-3-3-3-3-3-3-3-3-3-3-3-3-3-|
E--|--------------------------------|--------------------------------|
    ^   ^   ^   ^   ^   ^   ^   ^    ^   ^   ^   ^   ^   ^   ^   ^    
    1       2       3       4        1       2       3       4        

    pm =============================================================
e--|--------------------------------|--------------------------------|
b--|--------------------------------|--------------------------------|
g--|5-5-5-5-5-5-5-5-5-5-5-5-5-5-5-5-|5-5-5-5-5-5-5-5-5-5-5-5-5-5-5-5-|
d--|5-5-5-5-5-5-5-5-5-5-5-5-5-5-5-5-|5-5-5-5-5-5-5-5-5-5-5-5-5-5-5-5-|
a--|3-3-3-3-3-3-3-3-3-3-3-3-3-3-3-3-|3-3-3-3-3-3-3-3-3-3-3-3-3-3-3-3-|
E--|--------------------------------|--------------------------------|
    ^   ^   ^   ^   ^   ^   ^   ^    ^   ^   ^   ^   ^   ^   ^   ^    
    1       2       3       4        1       2       3       4        

    pm ================              pm =============================
e--|--------------------------------|--------------------------------|
b--|--------------------------------|--------------------------------|
g--|--------------------------5-----|--------------------------------|
d--|5-5-5-5-5-5-5-5-5---3-----5-----|5-5-5-5-5-5-5-5-5-5-5-5-5-5-5-5-|
a--|5-5-5-5-5-5-5-5-5---3-----3-----|5-5-5-5-5-5-5-5-5-5-5-5-5-5-5-5-|
E--|3-3-3-3-3-3-3-3-3---1-----------|3-3-3-3-3-3-3-3-3-3-3-3-3-3-3-3-|
    ^   ^   ^   ^   ^   ^   ^   ^    ^   ^   ^   ^   ^   ^   ^   ^    
    1       2       3       4        1       2       3       4        


PRECHORUS

    pm =============================================================
e--|--------------------------------|--------------------------------|
b--|--------------------------------|--------------------------------|
g--|5-5-5-5-5-5-5-5-5-5-5-5-5-5-5-5-|--------------------------------|
d--|5-5-5-5-5-5-5-5-5-5-5-5-5-5-5-5-|5-5-5-5-5-5-5-5-5-5-5-5-5-5-5-5-|
a--|3-3-3-3-3-3-3-3-3-3-3-3-3-3-3-3-|5-5-5-5-5-5-5-5-5-5-5-5-5-5-5-5-|
E--|--------------------------------|3-3-3-3-3-3-3-3-3-3-3-3-3-3-3-3-|
    ^   ^   ^   ^   ^   ^   ^   ^    ^   ^   ^   ^   ^   ^   ^   ^    
    1       2       3       4        1       2       3       4        

    pm =============================================================
e--|--------------------------------|--------------------------------|
b--|--------------------------------|--------------------------------|
g--|5-5-5-5-5-5-5-5-5-5-5-5-5-5-5-5-|--------------------------------|
d--|5-5-5-5-5-5-5-5-5-5-5-5-5-5-5-5-|5-5-5-5-5-5-5-5-5-5-5-5-5-5-5-5-|
a--|3-3-3-3-3-3-3-3-3-3-3-3-3-3-3-3-|5-5-5-5-5-5-5-5-5-5-5-5-5-5-5-5-|
E--|--------------------------------|3-3-3-3-3-3-3-3-3-3-3-3-3-3-3-3-|
    ^   ^   ^   ^   ^   ^   ^   ^    ^   ^   ^   ^   ^   ^   ^   ^    
    1       2       3       4        1       2       3       4        

    pm =============================================
e--|--------------------------------|----------------|
b--|--------------------------------|----------------|
g--|5-5-5-5-5-5-5-5-5-5-5-5-5-5-5-5-|----------------|
d--|5-5-5-5-5-5-5-5-5-5-5-5-5-5-5-5-|5-5-5-5-5-5-5-5-|
a--|3-3-3-3-3-3-3-3-3-3-3-3-3-3-3-3-|5-5-5-5-5-5-5-5-|
E--|--------------------------------|3-3-3-3-3-3-3-3-|
    ^   ^   ^   ^   ^   ^   ^   ^    ^   ^   ^   ^     
    1       2       3       4        1       2         
     
e--|0-------------------------------|----------------0---------------|
b--|1-------------------------------|----------------1---------------|
g--|2-------------------------------|----------------2---------------|
d--|2-------------------------------|----------------2---------------|
a--|0-------------------------------|----------------0---------------|
E--|--------------------------------|--------------------------------|
    ^   ^   ^   ^   ^   ^   ^   ^    ^   ^   ^   ^   ^   ^   ^   ^    
    1       2       3       4        1       2       3       4        


CHORUS - starts right after the last Am of the prechorus

e--|--------------------------------|--------------------------------|
b--|--------------------------------|---(1)--------------------------|
g--|--------------------------0-----|---(0)--------------------------|
d--|--------------------------------|---(2)------------------0-------|
a--|--------------------0h1h2-----3-|---(3)--------------2h3---1-----|
E--|--------------------------------|------------------------------3-|
    ^   ^   ^   ^   ^   ^   ^   ^    ^   ^   ^   ^   ^   ^   ^   ^    
    1       2       3       4        1       2       3       4        

e--|--------------------------------|--------------------------------|
b--|---(0)--------------------------|---(1)--------------------------|
g--|---(0)--------------------0-----|---(0)--------------------------|
d--|---(0)--------------------------|---(2)------------------0-------|
a--|---(x)--------------0h1h2-----3-|---(3)--------------2h3---1-----|
E--|---(3)--------------------------|------------------------------3-|
    ^   ^   ^   ^   ^   ^   ^   ^    ^   ^   ^   ^   ^   ^   ^   ^    
    1       2       3       4        1       2       3       4        

e--|--------------------------------|--------------------------------|
b--|---(0)--------------------------|---(1)--------------------------|
g--|---(0)--------------------0-----|---(0)--------------------------|
d--|---(0)--------------------------|---(2)------------------0-------|
a--|---(x)--------------0h1h2-----3-|---(3)--------------2h3---1-----|
E--|---(3)--------------------------|------------------------------3-|
    ^   ^   ^   ^   ^   ^   ^   ^    ^   ^   ^   ^   ^   ^   ^   ^    
    1       2       3       4        1       2       3       4        

e--|--------------------------------|0---------------0---------------|
b--|---(0)--------------------------|1---------------1---------------|
g--|---(0)--------------------------|2---------------0---------------|
d--|---(0)--------------------------|2---------------2---------------|
a--|---(x)--------------------------|0---------------3---------------|
E--|---(3)--------------------------|--------------------------------|
    ^   ^   ^   ^   ^   ^   ^   ^    ^   ^   ^   ^   ^   ^   ^   ^    
    1       2       3       4        1       2       3       4        

e--|2-------------------------------|
b--|3-------------------------------|
g--|2-------------------------------|
d--|0-------------------------------|
a--|--------------------------------|
E--|--------------------------------|
    ^   ^   ^   ^   ^   ^   ^   ^    
    1       2       3       4        


BRIDGE

e--|---------------------------------|-----------------0-0-0-0-0-0-0-|
b--|---------------------------------|-----------------1-1-1-1-1-1-1-|
g--|---------------------------------|-----------------0-0-0-0-0-0-0-|
d--|3-3---3-3---3-3---3-3-5-5-5-5-5--|3-3--3-3---3-3---2-2-2-2-2-2-2-|
a--|3-3---3-3---3-3---3-3-5-5-5-5-5--|3-3--3-3---3-3---3-3-3-3-3-3-3-|
E--|0-1---0-1---0-1---0-1-3-3-3-3-3--|0-1--0-1---0-1-----------------|
    ^   ^   ^   ^   ^   ^   ^   ^    ^   ^   ^   ^   ^   ^   ^   ^    
    1       2       3       4        1       2       3       4        

e--|---------------------------------|-----------------0-0-0-0-0-0-0-|
b--|---------------------------------|-----------------1-1-1-1-1-1-1-|
g--|---------------------------------|-----------------0-0-0-0-0-0-0-|
d--|3-3---3-3---3-3---3-3-5-5-5-5-5--|3-3--3-3---3-3---2-2-2-2-2-2-2-|
a--|3-3---3-3---3-3---3-3-5-5-5-5-5--|3-3--3-3---3-3---3-3-3-3-3-3-3-|
E--|0-1---0-1---0-1---0-1-3-3-3-3-3--|0-1--0-1---0-1-----------------|
    ^   ^   ^   ^   ^   ^   ^   ^    ^   ^   ^   ^   ^   ^   ^   ^    
    1       2       3       4        1       2       3       4        

e--|---------------------------------|-----------------0-0-0-0-0-0-0-|
b--|---------------------------------|-----------------1-1-1-1-1-1-1-|
g--|---------------------------------|-----------------0-0-0-0-0-0-0-|
d--|3-3---3-3---3-3---3-3-5-5-5-5-5--|3-3--3-3---3-3---2-2-2-2-2-2-2-|
a--|3-3---3-3---3-3---3-3-5-5-5-5-5--|3-3--3-3---3-3---3-3-3-3-3-3-3-|
E--|0-1---0-1---0-1---0-1-3-3-3-3-3--|0-1--0-1---0-1-----------------|
    ^   ^   ^   ^   ^   ^   ^   ^    ^   ^   ^   ^   ^   ^   ^   ^    
    1       2       3       4        1       2       3       4        

e--|---------------------------------|---------------|
b--|---------------------------------|---------------|
g--|---------------------------------|---------------|
d--|3-3---3-3---3-3---3-3-5-5-5-5-5--|3-3--3-3---3-3-| into chorus
a--|3-3---3-3---3-3---3-3-5-5-5-5-5--|3-3--3-3---3-3-|
E--|0-1---0-1---0-1---0-1-3-3-3-3-3--|0-1--0-1---0-1-|
    ^   ^   ^   ^   ^   ^   ^   ^    ^   ^   ^   ^    
    1       2       3       4        1       2        





Comments


Popular Tonic tabs & chords
3 Am Chords
Lemon Parade Chords
Eyes Of Sand 1 Tabs
If You Could Only See (Acoustic) Tabs
Knock Down Walls Tabs
Liar 1 Tabs
Open Up Your Eyes Tabs
Soldier's Daughter Tabs
Take Me As I Am Tabs
Generation Ukulele


Song lyrics



↑ Back to top | Tablatures and chords are parodies/interpretations of the original songs. You may use it for private study, scholarship, research or language learning purposes only
© 2014 AZChords.com Contact us | Privacy policy | DMCA | Add/correct tabs | Request tabs | Top 50 tabs