» » »

Tonic, Do You Know Tabs (ver.1)

Artists:  A B C D E F G H I J K L M N O P Q R S T U V W X Y Z # 

Do You Know Tabs (ver.1)

Tonic Tabs
 Rating:
4.2/5 (5 votes)
Do You Know lessons Tabs too difficult? Try these video lessons and learn fast
                Tonic - Do You Know
Drop D tuning, capo first fret


Intro - Rhythm Guitar
                    ** start playing lead here
 f|-----------------|--------------|---------------|----------------|
 C|-----------------|--------------|-3-------------|----------------|
Ab|-----------------|--------------|-4-------------|----------------|
Eb|-0-0-0-0-0-0-0-0-|-0------------|-4-------------|-5--------------|
Bb|-0-0-0-0-0-0-0-0-|-0------------|-2-------------|-5--------------|
Eb|-0-0-0-0-0-0-0-0-|-0------------|---------------|-5--------------|
   mute but get louder


Lead Guitar Intro part - played 3x
 f|------------------------------------|
 c|-10----10---------------------------|
Ab|----------12----12-11----11-12p11---|
Eb|---------------------------------12-|
Bb|------------------------------------|
Eb|------------------------------------|




Verse 1 - Bass only, until (0:22). Guitar uses delay/reverb

|-----|------------------|---------------------|-----------------|----------------|
|---3-|-3----3-3-3-3-3-3-|-3----3-3-3-3-3------|-3-3-3-3-3-3-3-3-|-3--------3-----|
|-0---|-0h2--------------|-2h4-----------4h2h0-|-0---------------|-------0----0---|
|-----|------------------|---------------------|-----------------|-2h4-----4----4-|
|-----|------------------|---------------------|-----------------|----------------|
|-----|------------------|---------------------|-----------------|----------------|



Prechorus - 2 guitars play this

|-----------------0--0--|-----------------------|----------------0--0--|
|-----3--3--------------|-----3--3--------3--3--|-----3--3-------------|
|-0---------0h2---------|-----------0--0--------|-0---------0h2--------|
|-0---------2-----------|---4-------0-----------|-0---------2----------|
|-----------0-----------|-0---------------------|-----------0----------|
|-----------------------|-0---------------------|----------------------|


|-----------------------|----------------------------|
|------3--3-----3----3--|----3---3---3--3--3-3-3--3--|
|------------0----------|----0-0-0---0---------------|
|-4--4-------0----4-----|-2-------------2--2-2-2--2--|
|-0---------------------|----------------------------|
|-0---------------------|----------------------------|
  This is something similar to this, since the delay makes it hard to hear


play the Intro (after the 'get louder' part)




Chorus - 2 Distorted Guitars (one does single notes/ other is chords)

 let notes ring
|---------------------|---------------------|---------------------|
|------3--------------|------3----2----0----|------3--------------|
|----------------2----|-2-------------------|-4--------------2----|
|-0---------4---------|-2-------------------|-4---------4---------|
|-0-------------------|-0-------------------|-2-------------------|
|-0-------------------|---------------------|---------------------|


|----------------------|
|-------3----2----0----| 
|-(0)------------------|
|--5-------------------|
|--5-------------------|
|--5-------------------|





Verse 2 - Similar to verse 1 but high note alternates between Eb - F



Play Prechorus Again


Play Chorus Again 2x through


Solo - Chorus chords are in rhythm part here
 F|------------------------------------|---------------------------------|
 C|-10------10--------10----10---------|-10----10____-------10-10--------|
Ab|-12b14--b14r12-11-----11-11---11h12-|-12b14----b14r12-11----11--------|
Eb|------------------------------------|----------------------------9-12-|
Bb|------------------------------------|---------------------------------|
Eb|------------------------------------|---------------------------------|

|-10-----------10--------------------|------10-10------10-10------10-10-------10~~---|
|----12~--12p10--12-12~--12p10-12p10-|-13b15_____-13b15_____-13b15_____-13p10-13b15~~|
|------------------------------------|-----------------------------------------------|
|------------------------------------|-----------------------------------------------|
|------------------------------------|-----------------------------------------------|
|------------------------------------|-----------------------------------------------|



Play Chorus without lyrics, then play it 2x more with lyrics


Lead Ending adds (at 3:17)
|-------------------------|-------------------------|-------------------------------|
|-10-----10-------10------|-10-----10-------10------|-10----10----10----10----10----|
|-12b14--12b14r12-11------|-12b14--12b14r12-11------|-12b14-12b14-12b14-12b14-12b14-|
|-------------------------|-------------------------|-------------------------------|
|-------------------------|-------------------------|-------------------------------|
|-------------------------|-------------------------|-------------------------------|


|------10-10-----10-10-----10-10-----10-10-------------|---------|
|------10-10-----10-10-----10-10-----10-10-10----------|-(10)----|
|-12b14-----12b14-----12b14-----12b14------12b14r12b14~|-(b14)---|  
|------------------------------------------------------|---------|
|------------------------------------------------------|---------|
|------------------------------------------------------|---------|

rhythm ends on open Eb5 chord (0 0 0 x x x)



KEY
************************************

| /   slide up
| \   slide down
| h   hammer-on
| p   pull-off
| ~   vibrato
| +   harmonic
| x   Mute note
| b   Bend
| r  Bend release

************************************
            
Submit corrections

comments powered by Disqus
↑ Back to top | Tonic Tabs for Do You Know. Lyrics for acoustic guitar and electric guitar. Tablatures and chords are parodies/interpretations of the original songs. You may use it for private study, scholarship, research or language learning purposes only