» » »

Tonic, Daffodil Tabs (ver.1)

Artists:  A B C D E F G H I J K L M N O P Q R S T U V W X Y Z # 

Daffodil Tabs (ver.1)

Tonic Tabs
Rating:
0/5 (0 votes)
Daffodil lessons Tabs too difficult? Try these video lessons and learn fast
                
Tuning: E A D G B E (Standard)



Intro & Interlude:

--0--0--0--0--0--0--0--0---0-0-0-0--|
--0--0--0--0--0--0--0--0---0-0-0-0--|
--4--4--4--9--9--9--0--0---0-0-0-0--|
--5--5--5-10-10-10-10-10--1010-9-9--|
--5--5--5-10-10-10-10-10--10101010--|
--3--3--3--8--8--8--8--8---8-8-8-8--|
  ^  ^  ^  ^  ^  ^  ^  ^   ^ v ^ v



Verse:

--3--0--3--3--3--3--3--3--|
--0--1--0--1--0--1--0-^1--|
--0--0--0--0--0--0--0--0--|
--0--2--0--0--0--0--0--0--|
--x--3--x--2--x--2--x-^2--|
--3--3--3--3--3--3--3--3--|



Pre-chrous:

--2----0----|
--3----1----|
--4----0----| x2
--4----2----|
--2----3----|
-------3----|



Chorus:

--3-3-3-3-3-3-3-3--|
--0-0-0-0-0-0-0-0--|
--0-0-0-0-0-0-0-0--|
--0-0-0-0-0-0-0-0--|
--x-x-x-x-x-x-x-x--|
--3-3-3-3-3-3-3-3--|
  (Crescendo)

--0----3----0----|
--1----0----1----|
--0----0----0----|
--2----0----2----|
--3----x----3----|
--3----3----3----|

--0----0----0----0----|
--1----0----1----1----|
--2----0----2----0----|
--2----2----2----2----|
--0----2----0----3----|
-------0---------3----|



Bridge:

--0----2----0----|
--1----3----1----|
--0----4----0----|
--2----4----2----|
--3----2----3----|
--3---------3----|



Final Chorus:

--3----|
--0----|
--0----|
--0----|
--x----|
--3----|
  (Let ring)

--0----3----0----|
--1----0----1----|
--0----0----0----|
--2----0----2----|
--3----x----3----|
--3----3----3----|

--0----0----0----0----|
--1----0----1----1----|
--2----0----2----0----|
--2----2----2----2----|
--0----2----0----3----|
-------0---------3----|



Outro:

--0--0--0--0--0--0--0--0---0-0-0-0---3----|
--0--0--0--0--0--0--0--0---0-0-0-0---0----|
--4--4--4--9--9--9--0--0---0-0-0-0---0----|
--5--5--5-10-10-10-10-10--1010-9-9---0----|
--5--5--5-10-10-10-10-10--10101010---x----|
--3--3--3--8--8--8--8--8---8-8-8-8---3----|
  ^  ^  ^  ^  ^  ^  ^  ^   ^ v ^ v (Arpeggiated + let ring)
            
Submit corrections

comments powered by Disqus
↑ Back to top | Tonic Tabs for Daffodil. Lyrics for acoustic guitar and electric guitar. Tablatures and chords are parodies/interpretations of the original songs. You may use it for private study, scholarship, research or language learning purposes only