>
 >
Count On Me

Count On Me Guitar Tabs

Tonic - Count On Me chords, tabs, tablatures, lyrics

Guitar lessons | Add/correct | Request | Top 50 tabs Artists:  A B C D E F G H I J K L M N O P Q R S T U V W X Y Z 0-9

Count On Me Guitar Tabs – Tonic

CD, Sheet music, Poster

Do you like Count On Me? Share with your friends now
ChordsTabsUkulele
Tonic - "Count On Me"
Acoustic is Double Drop D tuning, capo 4th fret
Electric is Drop D, capo 4th fret




Intro Riff - Guitar w/ flanger/reverb
G#|----------------------------------|
D#|-----3-----3-----3-----3----------|
B |---0-----0-----0-----0------------|
F#|-4-----2-----5-----4-----2h4p2p0--| play 4x
C#|----------------------------------|
F#|----------------------------------|



Heavy Riff - Distorted Guitar, starts on last beat of Intro Riff

             F#                Em7               
|---------||-----------------|------------------------|
|---------||------3----3-----|-3-------(3)------------|
|---------||------2----2-----|-0-----(0)--------------|
|---------||------0----0-----|-2---(4)----------------|
|-2/4\2-0-||-0----0----0-----|---------------2/4\2-0--|
|-2/4\2-0-||-0----0----0-----|---------------2/4\2-0--|
              
|------0----0-----|-0--------------------|----------|
|------3----3-----|-0-------(3)----------|----------|
|------2----2-----|-0-----(0)------------|----------|
|------0----0-----|-2---(4)--------2--4--|-5--------|
|-0----0----0-----|----------------2--4--|-5--------|
|-0----0----0-----|----------------2--4--|-5--------|
 
Second guitar is in ()



Verse Riff 1 - Rhythm Acoustic 
    F#                         B
F#|-0----0---0-0-0--0-0-0-0-|-0---0-0---0---0-0---0-0-0-|
D#|-3----3---3-3-3--3-2-2-0-|-0---0-0---0---0-0---0-0-2-|
B |-2----2---2-2-2--2-2-2-2-|-0---0-0---0---0-0---0-0-0-|
F#|-0----0---0-0-0--0-0-0-0-|-0---0-0---0---0-0---0-0-0-| play 2x
C#|-------------------------|---------------------------| similarly
F#|-------------------------|---------------------------|

"around you                              I wanna fall"
"into your eyes                        I love to feel you"


Verse Riff ending:
  Rhythm
|-0--0-0--0--0-0--0-0---0-|-0------0------0-0-0-0-|
|-3--3-3--2--2-2--2-3---3-|-3------3------3-3-3-3-|
|-2--2-2--2--2-2--2-2---2-|-0------2------2-2-2-2-|
|-0--0-0--0--0-0--0-0---0-|-2------0------0-0-0-0-|
|-------------------------|-----------------------|
|-------------------------|-----------------------|
|
| Lead
|--------------------------|----------------------|
|-3----------2---2-2---2h3-|-----5--3-------------|
|-2----------2---2-2---2---|---4----2-------------|
|-0----------0---0-0---0---|-2------0-------------|
|--------------------------|----------------------|
|--------------------------|----------------------|
  "close to me if theres no piece of mind"






Prechorus Rhythm:              * add in Lead part              
|-0---0-0---0---0-0--0-0-0-0-|-0---0-0---0---0-0-0-0-0-0-0-|
|-0---0-0---0---0-0--0-0-0-0-|-3---3-3---3---3-3-2-2-2-0-0-|
|-0---0-0---0---0-0--0-0-0-0-|-2---2-2---2---2-2-2-2-2-2-2-|
|-0---0-0---0---0-0--0-0-0-0-|-0---0-0---0---0-0-0-0-0-0-0-|    
|----------------------------|-----------------------------|    
|----------------------------|-----------------------------|
         "I live to hear you laughing"

  Lead part
----------------------|
----------------------|
----------------------|
----4---2-4p2-4-2-0---|
----5-----5---5-------|
----------------------|

Continue:
  Rhythm
|-0---0-0---0---0-0--0-0-0-0-|-0---0-0--0--0-0---0-0-0-0-|
|-0---0-0---0---0-0--0-0-0-0-|-3---3-3--2--2-2---2-3-3-3-|
|-0---0-0---0---0-0--0-0-0-0-|-2---2-2--2--2-2---2-2-2-2-|
|-0---0-0---0---0-0--0-0-0-0-|-0---0-0--0--0-0---0-0-0-0-|
|----------------------------|---------------------------|
|----------------------------|---------------------------|
   "I long to feel your hands fall down along the side of me"



  Rhythm
|-0---0-0---0---0-0---0-0-0-0-|-0---0-0--0---0-0---0-0-|----------|
|-0---0-0---0---0-0---0-0-0-0-|-3---3-3--2---2-2---2-2-|-----0----|
|-0---0-0---0---0-0---0-0-0-0-|-2---2-2--2---2-2---2-2-|---2------|
|-0---0-0---0---0-0---0-0-0-0-|-0---0-0--0---0-0---0-0-|-2--------|
|-----------------------------|------------------------|----------|
|-----------------------------|------------------------|----------|
|
| Lead
|-----------------------------|--------------------|----------|
|-----------0---0--0--0-------|-3--------2---------|-----0----|
|-0-----2h4-0---0--0--0-------|-2--------2---------|---2------|
|-0-----0---------------------|-0--------0---------|-2--------|
|-0-----0---------------------|--------------------|----------|
|-----------------------------|--------------------|----------|
       "A change in life is hard to find, cause theres no piece of mind"





Chorus - Play Heavy Riff 3x on Rhythm & Lead part:

"If you ever need somebody"
"If you ever need somebody to love you"
"If you ever need somebody"


End of Chorus - Rhythm
|---------------------|
|-3-------------------|
|-2-------------------|
|-0-------------------|
|-0-------------------|
|-0-------------------| * lead plays Intro Riff during the ending
 "You can count on me"





Play Prechorus again on Rhythm, but add

Lead (1:30)
|-3----------------|-2-------2-----|-3--------------|-2-------0-------------|
|-----3------------|-----3---------|-----3----------|-----3-------3---------|
|---------0--------|---------------|---------0------|-----------------------|
|------------------|---------------|----------------|----------------2-2h4--|
|------------------|---------------|----------------|-----------------------|
|------------------|---------------|----------------|-----------------------|
"So kiss before the leaving         lovin' now for always knowin when to let u go"   

|-3-----------3-----|-2-------0-------------|-3-----------------------------|
|-----3-------------|-----3-------3---2-----|-----3--------play Intro Riff--|
|---------0---------|-----------------------|---------4---------------------|
|-------------------|-----------------------|-------------------------------|
|-------------------|-----------------------|-------------------------------|
|-------------------|-----------------------|-------------------------------|
"A change in life is hard to find, cause theres no piece of mind"




Play Chorus Again (same as before), but end on B chord similar to the intro




Solo 1 (with Rhythm Guitar playing Chorus riff)
G#|-----------10------|-------10-10----------------|-------------10------|
D#|-10--------------7-|-7b8________----------------|-------------------7-|
B |-9b10---7------9---|----------------9b11r9--7-9-|-9b11r9---7------9---|
F#|-------------------|----------------------------|---------------------|
C#|-------------------|----------------------------|---------------------|
F#|-------------------|----------------------------|---------------------|


|-10---10--10-----10-10---10-|------------10_____10___---|
|-7b8______b8r7------7b8-----|-10b12r10~------8_____7----|
|----------------------------|-------------------------9-|
|----------------------------|---------------------------|
|----------------------------|---------------------------|
|----------------------------|---------------------------|


|-10---10--10-----10--10---|-(10)-------------------------------------|
|-7b8--7---8----------7----|-(7)----now, play Intro Riff 4x to vocals-|
|--------------9-----------|------------------------------------------|
|--------------------------|------------------------------------------|
|--------------------------|------------------------------------------|
|--------------------------|------------------------------------------|




Play Chorus again but end with:

(2:56) Acoustic (few electric notes are heard too, but no real pattern)
|---------------------------|---------------------------|
|-3--3--3--3-3-3--3--3--3-3-|-2--2--2--2-2-2--2--2--2-2-|
|-4--4--4--4-4-4--4--4--4-4-|-2--2--2--2-2-2--2--2--2-2-|
|-4--4--4--4-4-4--4--4--4-4-|-2--2--2--2-2-2--2--2--2-2-|
|-2--2--2--2-2-2--2--2--2-2-|-0--0--0--0-0-0--0--0--0-0-|
|---------------------------|---------------------------|
 "If you ever need     somebody"

|-2--2--2--2-2-2--2--2--2-2-|--------------------------|
|-2--2--2--2-2-2--2--2--2-2-|-3--3--3--2--2--2--2--2-2-|
|-2--2--2--2-2-2--2--2--2-2-|-2--2--2--2--2--2--2--2-2-|
|-4--4--4--4-4-4--4--4--4-4-|-2--2--2--2--2--2--2--2-2-|
|-4--4--4--4-4-4--4--4--4-4-|-0--0--0--0--0--0--0--0-0-|
|---------------------------|--------------------------|
"You can count on me"




Play Chorus again with Lead Solo 2:

|-------------10--------|-----10-10---------------|------------10-------|
|-10-----------------7--|-7b8---------------------|------------------7--|
|-9b11r9---7------9-----|-------------9b11r9-7-9--|-9b11r9~--7-----9----|
|-----------------------|-------------------------|---------------------|
|-----------------------|-------------------------|---------------------|
|-----------------------|-------------------------|---------------------|

|------10-10---------------|----------10-10-------|------10-10----------|----------|
|-7h8---------10-----------|--------------------7-|-7b8__________b8r7---|----------|
|--------------9b11r9--7-9-|-9b11r9---7------9----|-------------------9-|--7-------|
|--------------------------|----------------------|---------------------|-(0)------|
|--------------------------|----------------------|---------------------|-(0)------|
|--------------------------|----------------------|---------------------|-(0)------|

notes in () are last rhythm chord

After last bar, guitar plays Intro Riff 4x to end song



key
| /  slide up
| \  slide down
| h  hammer-on
| p  pull-off
| ~  vibrato
| b  bend note
| r  release bend
| __ hold note while playing another string (harmony)
| () second guitar part's notes





Comments


Popular Tonic tabs & chords
If You Could Only See Bass Tabs
Sugar Chords
Celtic Aggresion Tabs
Du Intro Tabs
Eyes Of Sand Tabs
Mean To Me 1 Tabs
Mr. Golden Deal 1 Tabs
Stronger Than Mine Tabs
Open Up Your Eyes Ukulele
Waltz With Me Ukulele


Song lyrics



↑ Back to top | Tablatures and chords are parodies/interpretations of the original songs. You may use it for private study, scholarship, research or language learning purposes only
© 2014 AZChords.com Contact us | Privacy policy | DMCA | Add/correct tabs | Request tabs | Top 50 tabs