>
 >
Bigot Sunshine

Bigot Sunshine Guitar Tabs

Tonic - Bigot Sunshine chords, tabs, tablatures, lyrics

Guitar lessons | Add/correct | Request | Top 50 tabs Artists:  A B C D E F G H I J K L M N O P Q R S T U V W X Y Z 0-9

Bigot Sunshine Guitar Tabs – Tonic

CD, Sheet music, Poster

Do you like Bigot Sunshine? Share with your friends now
Tabs
Tonic - 'Bigot Sunshine'
tuning: standard, for 2 guitars

Enjoy and please rate my tabs so others will check them out too!

Intro- Part 1 - Guitar 1, strummed fast with alternating G string note
e|-10TP----------------------|
B|-10TP----------------------|
G|-12---11---12---11---12-11-|
D|-12TP----------------------|
A|---------------------------| play 2x
E|---------------------------|

Intro Part 2
e|------------------------|----------------3------|
B|-2-2----2-2-2---x-x-x-x-|-2-2----2-2-2---3------|
G|-0-2----2-0-2---x-x-x-x-|-0-2----2-0-2---0------|
D|-0-2----2-0-2---x-x-x-x-|-0-2----2-0-2----------|
A|-0-0----0-0-0---x-x-x-x-|-0-0----0-0-0----------| finish Intro with 
E|------------------------|-----------------------| part 1 2x again


Verse 1- Lead only, w/ wah
e|--------------------|------------------|-----------------------|-----------------|
B|-2-3-2--------------|---------5~-------|---------------------3-|-3--2------------|
G|-2-2-2-x-x-x-x-x-x--|-2~---------------|-x-x-x-x-x-x-x-x-x-x---|-----------------|
D|-2-2-2--------------|------------------|-----------------------|-----------------|
A|--------------------|------------------|-----------------------|-----------------|
E|--------------------|------------------|-----------------------|-----------------|

  keep plucking muted notes (x's) to beat
e|--------------------|-------------------|------------|---------------|
B|--------------------|-3--2--------------|------------|---------------|
G|-x-x-x-x-etc--------|-------2--0--------|-x-x-x-x--0-|-2~------------|
D|--------------------|-------------------|------------|---------------|
A|--------------------|-------------------|------------|---------------|
E|--------------------|-------------------|------------|---------------|



PreChorus
e|------------------------|------------------------|
B|-2-2----2-2-2---x-x-x-x-|-2-2----2-2-2---x-x-x-x-|
G|-0-2----2-0-2---x-x-x-x-|-0-2----2-0-2---x-x-x-x-|
D|-0-2----2-0-2---x-x-x-x-|-0-2----2-0-2---x-x-x-x-|
A|-0-0----0-0-0---x-x-x-x-|-0-0----0-0-0---x-x-x-x-|
E|------------------------|------------------------|

e|------------------------|-3-3-3-3-3-3-3-3-3-3-3-3-3-3-3-3-|
B|-2-2----2-2-2---x-x-x-x-|-3-3-3-3-3-3-3-3-3-3-3-3-3-3-3-3-|
G|-0-2----2-0-2---x-x-x-x-|-0-0-0-0-0-0-0-0-0-0-0-0-0-0-0-0-|
D|-0-2----2-0-2---x-x-x-x-|---------------------------------|
A|-0-0----0-0-0---x-x-x-x-|---------------------------------| 
E|------------------------|---------------------------------| 



  Chorus Rhythm, play 4x
e|---------------------------|---------------------------------|
B|-1---1-1-1---1-1-1-1-1-1-1-|-2---2-2-2---2-2-2-2-2-2-2---2-2-|
G|-0---0-0-0---0-0-0-0-0-0-0-|-2---2-2-2---2-2-2-2-2-2-2---2-2-|
D|-2---2-2-2---2-2-2-2-2-2-2-|-2---2-2-2---2-2-2-2-2-2-2---2-2-|
A|-3---3-3-3---3-3-3-3-3-3-3-|-0---0-0-0---0-0-0-0-0-0-0---0-0-|
E|---------------------------|---------------------------------|
 |
 |Chorus Lead, play 2x 
e|-----------------|-----------------|--------------|---------------|
B|-----------------|-----------------|--------------|---------------|
G|-4---------9--7--|-6---------------|---------9--7-|-6------(6b7)--|
D|-----------------|--------7--------|-5------------|---------------|
A|-2---------7--5--|-4---------------|---------7--5-|-4------(4b5)--|
E|-----------------|--------5--------|-3------------|---------------|
   Notes in () are on second time through chorus Lead part


Play Intro Part 1

Play Prechorus 2x

Play Chorus again, without bends


Chorus 2 ending
e|----------------|---------------------|
B|----------------|---------------------|
G|----------------|-0-------------------|
D|-5--------------|-0-------------------|
A|-3--------------|-2-------------------|
E|-3--------------|-3-------------------|
 "You can never act the way that you did back then"



Solo, w/ wah
e|-------7----------|-------------------------------|-------7--------|
B|-----7__----------|-------------------------------|-----7__--------|
G|-9TP____-------7--|-7\6---x-x-x-x-x-x-x-x-x-x-x-x-|-9TP____---7\6--|
D|------------------|-------x-x-x-x-x-x-x-x-x-x-x-x-|----------------|
A|-7TP____-------5--|-5\4---x-x-x-x-x-x-x-x-x-x-x-x-|-7TP____---5\4--|
E|------------------|-------------------------------|----------------|

e|--------------------|------------------------------|
B|--------------------|------------------------------|
G|-7TP\6--------------|------------------------5h7p5-|
D|----------5---------|-5h7-x-x-7--x-x-5h7-x-x-------|
A|-5TP\4--------------|------------------------------|
E|----------3---------|------------------------------|

e|--------------------------------------|-------------------------------5-|
B|--------------------------------------|-----------------------------5---|
G|-(5~~)---------5-----------5----7-5~~-|---------5-----------5---7b9-----|
D|-------x-x-5h7---7-x-x-5h7---7--------|-x-x-5h7---7-x-x-5h7---7---------|
A|--------------------------------------|---------------------------------|
E|--------------------------------------|---------------------------------|

e|------5-5------5-5---------------|
B|-8b10-----8b10-----8b10~---------|
G|---------------------------------|
D|---------------------------------|
A|---------------------------------|
E|---------------------------------|


Play Chorus with second Chorus ending

Play Intro Part 2

Play Intro Part 1

Ending is similar to prechorus part with muted strums




key:
------------------
b        bend
TP       tremelo pick (quickly alternating strumming) 
h        hammer-on
p        pull-off
~        vibrato
()       hold note
x        muted string strums





Comments


Popular Tonic tabs & chords
If You Could Only See Complete Tabs
Knock Down Walls 1 Tabs
Mean To Me Tabs
Sugar Tabs
You Wanted More 1 Tabs
Head On Straight 2 Ukulele
Love A Diamond Ukulele
Mean To Me Ukulele
On Your Feet Again Ukulele
Soldiers Daughter Ukulele


Song lyrics



↑ Back to top | Tablatures and chords are parodies/interpretations of the original songs. You may use it for private study, scholarship, research or language learning purposes only
© 2014 AZChords.com Contact us | Privacy policy | DMCA | Add/correct tabs | Request tabs | Top 50 tabs