>
 >
Mary Jane's Last Dance 1

Mary Jane's Last Dance 1 Guitar Tabs

Tom Petty - Mary Jane's Last Dance 1 chords, tabs, tablatures, lyrics

Guitar lessons | Add/correct | Request | Top 50 tabs Artists:  A B C D E F G H I J K L M N O P Q R S T U V W X Y Z 0-9

Mary Jane's Last Dance 1 Guitar Tabs – Tom Petty

CD, Sheet music, Poster

Do you like Mary Jane's Last Dance 1? Share with your friends now
TabsTabs v2Tabs v3


Intro:

Am  [0 0 2 2 1 0]
G   [3 2 0 0 0 3]
D   [0 0 0 2 3 2]

Hammer-on all B string intro notes...

Chorus:

Em  [0 2 2 0 0 0]
A   [0 0 2 2 2 0]

Repeating...

Verse 1

Well she grew up in an Indiana town,
Had a good lookin Momma who never was around.
But she grew up tall, and she grew up right.
With them Indiana boys, on a Indiana night.

Verse 2

Well she moved down here, at the age of 18.
She blew the boys away, it was more then they had seen.
I was introduced and we both started groovin'.
She said I figure baby, but I gotta keep movin... on... keep movin on.

Chorus

Last dance with Mary Jane,
One more time to kill the pain.
I feel summer creepin in,
And i'm tired of this town again.

Verse 3

Well I dont know, but I been told,
Ya never slow down, you never grow old.
Tired of screwing up, tired of goin down,
Tired of myself, tired of this town.
Oh my my, oh hell yes,
Hunny put on that party dress.
Buy me a drink, sing me a song,
Take me as it comes, cuz I can't stay long.

Chorus

Riff #1

e |---------------------------------------------------------------------|
b |---------------------------------------------------------------------|
g |---7~8~7--5---5--7~8-----------7~8~7--5---5--------------------------|
d |------------7---------------------------7----7-----------------------|
a |---------------------------------------------------------------------|
e |---------------------------------------------------------------------|
Repeat x2

Solo

e |---------------------------------------------------------------------|
b |-------------------------------------12------------------------------|
g |---9-9-9-9-9/12-12-12-12-12/14-12/14----14---------------------------|
d |---------------------------------------------------------------------|
a |---------------------------------------------------------------------|
e |---------------------------------------------------------------------|

e |---------------------------------------------------------------------|
b |---------------------------------------------------------------------|
g |---14-14-14-14-14/12-9-9-7/9/7-5/7/5---------------------------------|
d |--------------------------------------7-5-7--------------------------|
a |---------------------------------------------------------------------|
e |---------------------------------------------------------------------|


Verse 4

Theres pidgeons now, on market square,
Shes standing in her underwear.
Lookin down from a hotel room,
Nightfall will be coming soon.
Oh my my, oh hell yes,
You got to put on that party dress.
It was too cold to cry, when I woke up alone,
I hit my last number, and walked to the road.

Chorus

Outro Part:

Start with Riff #1

Well thats the way I play Mary Janes Last Dance by Tom Petty.  If you have any questions/comments or corrections feel free to send them to

Enjoy!





Comments


Popular Tom Petty tabs & chords
You Wreck Me Bass Tabs
Straight Into Darkness Chords
Breakdown 2 Tabs
Flirting With TimeSolo Tabs
Free Fallin 6 Tabs
Free Fallin' 1 Tabs
Its Good To Be King Tabs
Lost Children Tabs
Mary Jane's Last Dance 2 Tabs
Running Down A Dream Ukulele


Song lyrics



↑ Back to top | Tablatures and chords are parodies/interpretations of the original songs. You may use it for private study, scholarship, research or language learning purposes only
© 2014 AZChords.com Contact us | Privacy policy | DMCA | Add/correct tabs | Request tabs | Top 50 tabs