» » »

Tomorrows Bad Seeds, Only For You Chords (ver.1)

Artists:  A B C D E F G H I J K L M N O P Q R S T U V W X Y Z # 

Only For You Chords (ver.1)

Tomorrows Bad Seeds Tabs
Rating:
5/5 (2 votes)
Only For You lessons Tabs too difficult? Try these video lessons and learn fast
                Ok ladies and Gents, This here is my first tab so give it up!
There were no lyrics anywhere on the web and I became frustrated, so I made my own and 
I would tab out the intro while I was at it. Some of the words were hard to hear such as 
second line so leave comments and corrections!

Enjoy...

Intro:

e|------4--4-6-6/8-6-4-3---------------------------------------------------|
B|-----------------------4---4-4/6--6-8-9-8-6-4----------------------------|
G|-------------------------5-----------------------------------------------|
D|-------------------------------------------------------------------------|
A|-------------------------------------------------------------------------|
E|-------------------------------------------------------------------------|

e|------4--4-6-6/8-6-4-3---------------------------------------------------|
B|-----------------------4---4-4/6--6-8-9-8-6-4----------------------------|
G|-------------------------5--------------------5-3-3h5p3-1----------------|
D|-------------------------------------------------------------------------|
A|-------------------------------------------------------------------------|
E|-------------------------------------------------------------------------|

Chords played throughout song:

       G#     Cm    E#m     D#m
e|-----4-------3-----8-------6-----|
B|-----4-------4-----9-------7-----|
G|-----5-------5-----10------8-----|
D|-----6-------5-----10------8-----|
A|-----6-------3-----8-------6-----|
E|-----4-------x-----x-------x-----|

-Verse 1:
There's a fire burning in my heart
And it grows cause were apart?
Only for you my love
Only for you
Its a place no one can ever take
you know my love can never be replaced
It belongs to you my love
only to you

-Chorus:
so rock steady with your woman
we gotta keep on movin'
Don't stop till your in the groove
slow and steady to my rhythm
we gotta keep on movin'
Don't stop don't stop are you in the mood
I know you feel it too  oOo-oOo
Oh yeah

-Verse 2:
And do what you want to do
And don't stop the rhythm
Let it move you
Oh yeah
And that little thing you do
Makes me want to push on you
Oh girl, oh girl, ooh girl
Little girl
And I

-Verse 3:
I know that your a special girl
If i could i would give you the world
Give it to you my love
Only to you
Its a place no one can ever take
You know my love can never be replaced
It belongs to you my love
Only to you

-Chorus:
So rock steady with your woman
We gotta keep on movin'
Don't stop till your in the groove
Slow and steady to this rhythm
We gotta keep on movin'
Don't stop don't stop are you in the mood
I know you feel it too  oOo-oOo
Oh yeah

-Verse 4:
And do what you got to do
Don't stop the rhythm
Let it moveyou
Oh yeah
We've got to push on through
So the love has room to move you
Oh yeah
And I

-Verse 5:
There's a fire burning Ain't no doubt
Ain't nobody gonna put it out
It burns for you my love
Only for you
Its a place no one can ever take
You know my love can never be replaced
It belongs to you my love
Only to you

-Verse 6:
Do what you got to do
And don't stop the rhythm
Let it move you oh yeah
Cause we got some work to do
There's no one but me and you
Oh girl, oh girrrrllll --- oh girlll
            

comments powered by Disqus
↑ Back to top | Tomorrows Bad Seeds Chords for Only For You. Lyrics for acoustic guitar and electric guitar. Tablatures and chords are parodies/interpretations of the original songs. You may use it for private study, scholarship, research or language learning purposes only