» » »

Tommy Reilly, Grab Me By The Collar Tabs (ver.1)

Artists:  A B C D E F G H I J K L M N O P Q R S T U V W X Y Z # 

Grab Me By The Collar Tabs (ver.1)

Tommy Reilly Tabs
 Rating:
4.3/5 (6 votes)
Grab Me By The Collar lessons Tabs too difficult? Try these video lessons and learn fast
1
                okay this is basically what i can gather from listening to some of the live ones. the 
are a slight bit off but it still sounds well feedback would be excellent. thanks

tuning standard eBGDAE
chords used in the verse are basically C, Am7 and F(but ya don't need to bother with the 
cos you're picking
then for the second part of the verse its C, Em7, Am7, C/G, and F

intro
e--------------------------------------------0--------|
B---1------------1-----------1-----------1---1--------|
G-----0---0---0----0---0-------0---0-------2-2--------|
D------0h2-0h2------0h2-0h2-----0h2-0h2-3-3--3--------|
A-3--3---------3--3--------0--0-----------------------|
E-----------------------------------------------------|

verse p1 (they're done testin me/sound in my/am i supposed
e-----------------------------------------------------|             e0
B---1------------1-----------1-----------1------1-----|             B1
G-----0---0---0----0---0-------0---0-------2-0h2-0----|x2 2nd time  G2
D------0h2-0h2------0h2-0h2-----0h2-0h2-3-3-----------|   finish on D3
A-3--3---------3--3--------0--0-----------------------|
E-----------------------------------------------------|

Verse P2(drift on the/for a while/i'm tryin/i feel
e----------------------------------| end on A 7/3 or slap guitar
B---1----1----1-----1---1---1--3-1-|
G-----0----0----0-----0---2--------|
D------------------------3---------|
A-3--3-2--2-0--0-----3-3-----------|
E-----------------3---------3--3-1-|

last time at end of verse play
e1--1-1-1-|
B1--1-1-1-|
G2--2-2-2-|
D3--3-3-3-|
A3--3-3-3-|
E1--1-1-1-|

chorus ( grab me by the collar)

e-------------------------------------------|
B--0-0-0-0-0-0-0-0-0-0-0-0-0-0-0-0----------|
G-------------------------------------------|
D-------------------------------------------|x6
A-------------------------------------------|
E-3-3-3-3-5-5-5-5-8-8-0-0-1-1-1-1-----------|

e---------------------------|
B--0-0-0-0-0-0-0------------|
G---------------------------|
D---------------------------|x2
A---------------------------|
E-8-8-0-0-1-1-1-1-----------|

e-8--8--8--8--------------1-1-1-1-1-1-1-1----|
B-8--8--8--8--------------1-1-1-1-1-1-1-1----|
G-9--9--9--9--9--9--9--9--2-2-2-2-2-2-2-2----|
D-10-10-10-10-10-10-10-10-3-3-3-3-3-3-3-3----|x4
A-10-10-10-10-10-10-10-10-3-3-3-3-3-3-3-3----|
E-8--8--8--8--0--0--0--0--1-1-1-1-1-1-1-1----|

if you can't manage the barre chords you can sub in
e-0-0-0----|
B-1-1-1----|
G-0-0-2----|
D-2-2-2----|
A-3-2-0----|
E----------|
to the same rhythm

finish with
e-0---0-0--0--1-------------0--|
B-1---1-1--1--1-------------1--|
G-0---0-0--2--2-------------0--|
D-2---2-2--2--3--3-2-0h2-0--2--|
A-3---3-3--0--3-------------3--|
E-------------1----------------|

my first tab so any improvements please let me know
tony
            
Submit corrections

comments powered by Disqus
↑ Back to top | Tommy Reilly Tabs for Grab Me By The Collar. Lyrics for acoustic guitar and electric guitar. 1 Tablatures and chords are parodies/interpretations of the original songs. You may use it for private study, scholarship, research or language learning purposes only