>
 >
Give Me A Call

Give Me A Call Guitar Tabs

Tommy Reilly - Give Me A Call chords, tabs, tablatures, lyrics

Guitar lessons | Add/correct | Request | Top 50 tabs Artists:  A B C D E F G H I J K L M N O P Q R S T U V W X Y Z 0-9

Give Me A Call Guitar Tabs – Tommy Reilly

CD, Sheet music, Poster

Do you like Give Me A Call? Share with your friends now
Tabs

I've included chords & lyrics, so it's a bit easier to play along to.
Chords in brackets are just the notes played in the chorus, to keep time

Chords

Dm - xx0231
Am - x02210
C - x32010
F - 133211
F/C - 033211
Bb - X13331

Intro

    Dm      Am         C       F
e|---1-------0---------0-------1--|
B|---3-------1---------1-------1--|
G|---2-------2---------0-------2--|
D|-0-----0---2---------2---2h3-3--|
A|---------0-0---0-2-3-3--3----3--|
E|---------------------0-------1--|

    Dm      Am     Bb
e|---1-------0------1------------|
B|---3-------1------3------------|
G|---2-------2------3------------|
D|-0-----0---2------3------------|
A|---------0-0---1--1---1--1--1--|
E|-------------------------------|

Verse 1

    Dm      Am         C       F
e|---1-------0---------0-------1--|
B|---3-------1---------1-------1--|
G|---2-------2---------0-------2--|  (x3)
D|-0-----0---2---------2---2h3-3--|
A|---------0-0---0-2-3-3--3----3--|
E|---------------------0-------1--|

    Dm      Am     Bb
e|---1-------0------1--1--------------|
B|---3-------1------3--3--------------|
G|---2-------2------3--3--------------|
D|-0-----0---2------3--3--------------|
A|---------0-0---1--1--1--1--1-1-1-1--|
E|------------------------------------|

Verse 2

    Dm      Am         C       F
e|---1-------0---------0-------1--|
B|---3-------1---------1-------1--|
G|---2-------2---------0-------2--| (x3)
D|-0-----0---2---------2---2h3-3--|
A|---------0-0---0-2-3-3--3----3--|
E|---------------------0-------1--|

    Dm      Am     Bb
e|---1-------0------1---------3--|
B|---3-------1------3---------3--|
G|---2-------2------3---------3--|
D|-0-----0---2------3---------3--|
A|---------0-0---1--1---1--1--1--|
E|-------------------------------|

    Dm      Am     Bb
e|---1-------0------1---------------------|
B|---3-------1------3---------------------|
G|---2-------2------3---------------------|
D|-0-----0---2------3---------------------|
A|---------0-0---1--1---1--1-1------------|
E|-------------------------------3/5---3--|

Chorus

e|--------------------------------------------------------------------------|
B|--------------------------------------------------------------------------|
G|--------------------------------------------------------------------------| (x3)
D|--------------------------------------------------------------------------|
A|--------------------------------------------------------------------------|
E|--1-1-1-1-1-1-1-1--0-0-0-0-0-0-0-0--5-5-5-5-5-5-5-5--10-10-10-10-6-6-6-6--|

e|------------------------------------------------------------|
B|------------------------------------------------------------|
G|------------------------------------------------------------|
D|------------------------------------------------------------|
A|------------------------------------------------------------|
E|--1-1-1-1-1-1-1-1--0-0-0-0-0-0-0-0--5-5-5-5-5-5-5-5--10--6--|

    F                F/C              Am               Dm       Bb
e|--1-1-1-1-1-1-1-1--1-1-1-1-1-1-1-1--0-0-0-0-0-0-0-0--1-1-1-1--1-1-1-1--|
B|--1-1-1-1-1-1-1-1--1-1-1-1-1-1-1-1--1-1-1-1-1-1-1-1--3-3-3-3--3-3-3-3--|
G|--2-2-2-2-2-2-2-2--2-2-2-2-2-2-2-2--2-2-2-2-2-2-2-2--2-2-2-2--3-3-3-3--| (x2)
D|--3-3-3-3-3-3-3-3--3-3-3-3-3-3-3-3--2-2-2-2-2-2-2-2--0-0-0-0--3-3-3-3--|
A|--3-3-3-3-3-3-3-3--3-3-3-3-3-3-3-3--0-0-0-0-0-0-0-0-----------1-1-1-1--|
E|--1-1-1-1-1-1-1-1--0-0-0-0-0-0-0-0-------------------------------------|

Bridge

    Dm      Am         C       F
e|---1-------0---------0-------1--|
B|---3-------1---------1-------1--|
G|---2-------2---------0-------2--|
D|-0-----0---2---------2---2h3-3--|
A|---------0-0---0-2-3-3--3----3--|
E|---------------------0-------1--|

    Dm      Am     Bb
e|---1-------0------1------------|
B|---3-------1------3------------|
G|---2-------2------3------------|
D|-0-----0---2------3------------|
A|---------0-0---1--1---1--1--1--|
E|-------------------------------|

Verse 3

    Dm      Am         C       F
e|---1-------0---------0-------1--|
B|---3-------1---------1-------1--|
G|---2-------2---------0-------2--| (x3)
D|-0-----0---2---------2---2h3-3--|
A|---------0-0---0-2-3-3--3----3--|
E|---------------------0-------1--|

    Dm      Am     Bb
e|---1-------0------1---------3--|
B|---3-------1------3---------3--|
G|---2-------2------3---------3--|
D|-0-----0---2------3---------3--|
A|---------0-0---1--1---1--1--1--|
E|-------------------------------|

    Dm      Am     Bb
e|---1-------0------1---------------------|
B|---3-------1------3---------------------|
G|---2-------2------3---------------------|
D|-0-----0---2------3---------------------|
A|---------0-0---1--1---1--1-1------------|
E|-------------------------------3/5---3--|

Chorus

e|--------------------------------------------------------------------------|
B|--------------------------------------------------------------------------|
G|--------------------------------------------------------------------------| (x3)
D|--------------------------------------------------------------------------|
A|--------------------------------------------------------------------------|
E|--1-1-1-1-1-1-1-1--0-0-0-0-0-0-0-0--5-5-5-5-5-5-5-5--10-10-10-10-6-6-6-6--|

e|------------------------------------------------------------|
B|------------------------------------------------------------|
G|------------------------------------------------------------|
D|------------------------------------------------------------|
A|------------------------------------------------------------|
E|--1-1-1-1-1-1-1-1--0-0-0-0-0-0-0-0--5-5-5-5-5-5-5-5--10--6--|

    F                F/C              Am               Dm       Bb
e|--1-1-1-1-1-1-1-1--1-1-1-1-1-1-1-1--0-0-0-0-0-0-0-0--1-1-1-1--1-1-1-1--|
B|--1-1-1-1-1-1-1-1--1-1-1-1-1-1-1-1--1-1-1-1-1-1-1-1--3-3-3-3--3-3-3-3--|
G|--2-2-2-2-2-2-2-2--2-2-2-2-2-2-2-2--2-2-2-2-2-2-2-2--2-2-2-2--3-3-3-3--| (x2)
D|--3-3-3-3-3-3-3-3--3-3-3-3-3-3-3-3--2-2-2-2-2-2-2-2--0-0-0-0--3-3-3-3--|
A|--3-3-3-3-3-3-3-3--3-3-3-3-3-3-3-3--0-0-0-0-0-0-0-0-----------1-1-1-1--|
E|--1-1-1-1-1-1-1-1--0-0-0-0-0-0-0-0-------------------------------------|

Outro

    F          F/C    Am        Dm    Bb   F
e|--1~----------1~----0~---0----1~----1~--------1~--|
B|--1~----------1~----1~---1----3~----3~-------1~---|
G|--2~----------2~----2~---2----2~----3~------2~----|
D|--3~---3-x-3--3~----2~---2----0~----3~-----3~-----|
A|--3~---3-x-3--3~----0~---0----------1~----3~------|
E|--1~---1-x-1--0~-------------------------1~-------|




(Intro)

Dm Am C F
Dm Am Bb

(Verse 1)

Dm             Am  C    F
Tonight I wander carelessly
                Dm  Am    C  F
Through the tunnels of the ABC
         Dm         Am
I'm not lost, it's just that 
   C        F  Dm     Am       Bb
I need to be clear of mind to dream

(Verse 2)

        Dm    Am            C              F
And a laser shoots another image through my eye
     Dm          Am         C         F
Of a white square piercing a jet black sky
           Dm           Am   C          F
And then she floats down all pretty and bright
    Dm        Am          Bb
And we share a drink tonight
  Dm        Am      Bb
Tonight we share a pint

(Chorus)

(F)          (E)
Give me a call
                          (Am)
You've got a phone, don't you turn it on
    (Dm)        (Bb)      (F)
Cause I need to hear from you
             (E)
D'you know why?
                       (Am)
Cause I saw something today
                     (Dm)
That made it all come
            (Bb)
It all came back to me

(F)          (E)
Give me a call
                          (Am)
You've got a phone, don't you turn it on
    (Dm)        (Bb)      (F)
Cause I need to hear from you
             (E)
D'you know why?
                       (Am)
Cause I saw something today
                     (Dm)
That made it all come
            (Bb)      F
It all came back to me

 F/C                        Am
But she ain't stopping me tonight
 Dm                      Bb          F
Cause I've reached that point in my life
 F                          Am
When no-one's stopping me tonight
 Dm                      Bb
Cause I've reached that point in my life

(Bridge)

Dm Am C F
Dm Am Bb

(Verse 3)

         Dm             Am
There's beats and there's pulses
           C          F
And there's rhythm and soul
      Dm               Am
And I try to stand quite calmly
     C        F
As I lose control

        Dm         Am
See this girl was here
           C         F
And now she ain't no more
     Dm         Am   Bb
She loves this very floor
 Dm         Am   Bb
Loves this very floor

(Chorus)

(F)          (E)
Give me a call
                          (Am)
You've got a phone, don't you turn it on
    (Dm)        (Bb)      (F)
Cause I need to hear from you
             (E)
D'you know why?
                       (Am)
Cause I saw something today
                     (Dm)
That made it all come
            (Bb)
It all came back to me

(F)          (E)
Give me a call
                          (Am)
You've got a phone, don't you turn it on
    (Dm)        (Bb)      (F)
Cause I need to hear from you
             (E)
D'you know why?
                       (Am)
Cause I saw something today
                     (Dm)
That made it all come
            (Bb)      F
It all came back to me

 F/C                        Am
But she ain't stopping me tonight
 Dm                      Bb          F
Cause I've reached that point in my life
 F/C                        Am
When no-one's stopping me tonight
 Dm                      Bb           F
Cause I've reached that point in my life

(Outro)

            F/C
Give me a call
                          Am
You've got a phone, don't you turn it on
    Dm          Bb         F
Cause I need to hear from you





Comments


Popular Tommy Reilly tabs & chords
Dials Chords
Gimme A Call 1 Chords
Six Billion People Chords
Gimme A Call Tabs
Grab Me By The Collar Tabs
Take Me Away For The Night Tabs
Dials Ukulele
Gimme A Call Ukulele
I Dont Like Coffee Ukulele
Six Billion People Ukulele


Song lyrics



↑ Back to top | Tablatures and chords are parodies/interpretations of the original songs. You may use it for private study, scholarship, research or language learning purposes only
© 2014 AZChords.com Contact us | Privacy policy | DMCA | Add/correct tabs | Request tabs | Top 50 tabs