» » »

Tommy Emmanuel, Those Who Wait Tabs (ver.2)

Artists:  A B C D E F G H I J K L M N O P Q R S T U V W X Y Z # 

Those Who Wait Tabs (ver.2)

Tommy Emmanuel Tabs
 Rating:
4/5 (4 votes)
Those Who Wait lessons Tabs too difficult? Try these video lessons and learn fast
                
This tab is pretty easy. It should be. And this tab is like 97% correct because I've not 
listened to the song a thousand times, but have seen Tommy play it.

Tuning: Tune the low E to a drop D

Intro:
e|----------------------------------------------------------------------------|
B|------3---3------3-----3---------------------------1------------------------|
G|-----0-0--------0-----2-----------------------0-2--0------------------------|
D|----4---4------3-----5----play 3 times--0h2/4------3------------------------|
A|---5-----------------------------------0-----------3------------------------|
E|--0-----------3-----5-----------------0------------3------------------------|

After intro which is the verse
e|------3p0h1----------------------3p0h1-------------------------------------|
B|------------1-1------1-0--0---------------1-1h3/5-3------------------------|
G|--------------------0--------------------------------0h2-2-----------------|
D|----0--------------------0-7---0-------------------------------------------|
A|---0--------------------------0--------------------------------------------|
E|--0----------------3----5----0------------3---------5----------------------|

e|------3p0h1----------------------------------------------------------------|
B|-------------1-1----1p0------------3---3---3---3-----3------1--------------|
G|------------------0------2p0--2---0-2-0-2-0-2-0-----0-2-0---0--strum it----|
D|---0-----------------------------------------------------0--2--8 times-----|
A|---0-----------------------------1---------------1-2--------3--------------|
E|---0-------------3-----5---------------------------------------------------|

Chorus:
e|-------5-5--5--2h3p2-------------------------------------------------------|
B|-------3-3--3-------3/5-3----3---3h5/7-7--5-3-2-2h3------------------------|
G|-------2-2--2---------------4----------------------------------------------|
D|---0---0-0--0--------------0-----------------------------------------------|
A|----0--0-0--0--------------------------------------------------------------|
E|--0----0-0-00-4-----------5----5---------7---------------------------------|

e|-------5-5--5--2h3p2-3/5-7----7-5---7---5-7--9-9h10--9-7-5-3/5--5-5-5------|
B|-------3-3--3--------------------------------------------------------------|
G|-------2-2--2--------------------------------------------------------------|
D|---0---0-0--0----------------0-----0---------------------------------------|
A|----0--0-0--0--------------------------------------------------------------|
E|--0----0-0-00-4-------------5-----5--5-5---7--------9----------4-----------|

e|--0h2-5-5/7-5-3-0h2-2-3---3-2h3--------0h2-2--0-0--------------------------|
B|-----------------------0---------3-3-3---------3-3-------------------------|
G|------------------------0--------0-0-0-------------------------------------|
D|---------------------------------------------------------------------------|
A|---------------------------------------------0-----------------------------|
E|--------0-----------5-----------2------------------------------------------|

Back to intro (which would be the outro)
e|---------------------------------------------------------------------------|
B|------3--3-----3-----3---------------------------1-------------------------|
G|-----0-0------0-----2-----------------------0-2--0-------------------------|
D|----4---4----3-----5---play 3 times----0h2/4-----3-------------------------|
A|---5----------------------------------0----------3-------------------------|
E|--0---------3-----5------------------0-----------3-------------------------|
             starting slowing down here^

There it is guys. Once again, I'm like 97% sure that's how it goes. I promise. Good luck guys. Later.
=============================================================================
| /  slide up
| \ slide down
| h  hammer-on
| p  pull-off
| ~  vibrato
| +  harmonic
| x  Mute note
=============================================================================
            
Submit corrections

comments powered by Disqus
↑ Back to top | Tommy Emmanuel Tabs for Those Who Wait. Lyrics for acoustic guitar and electric guitar. Tablatures and chords are parodies/interpretations of the original songs. You may use it for private study, scholarship, research or language learning purposes only