>
 >
Tahitian Skies

Tahitian Skies Guitar Tabs

Tommy Emmanuel - Tahitian Skies chords, tabs, tablatures, lyrics

Guitar lessons | Add/correct | Request | Top 50 tabs Artists:  A B C D E F G H I J K L M N O P Q R S T U V W X Y Z 0-9

Tahitian Skies Guitar Tabs – Tommy Emmanuel

CD, Sheet music, Poster

Do you like Tahitian Skies? Share with your friends now
Tabs
                                  Tahitia Skies
                                  ^hammer on/pull off
                                  / slide
                        Can be played with pick or fingers
            This is my first ever tab, so give feedback please.

------------------0--0-0----------------------------------0--0-0---------|
------------------3--3-3----------------------------------3--3-3---------|
---2--------------2--2-2------------------------2---------2--2-2---------|
-------4----------4--4-4-4-4-------2-2-4-5--------4-------4--4-4-4-4-----|
-------0----------0--0-0-0-0------------------------------0--0-0-0-0-----|
-------0----------0--0-0-0-0---------------0--------------0--0-0-0-0-----|


----------0----------------------0--0-0------------------------------------|
-------------3-------------------3--3-3------------------------------------|
0-0-----6-------------0^2--------2--2-2------------------------------------|
----7-9--------4----------4------4--4-4-------------4-2^4^2^0---2-4-4^7----|
---------------------------------0--0-0------------------------------------|
-------------------0-------------0--0-0------------------------------------|


-------------------------0^2^3---0^2^0-------------------------------------|
-------------------------3-------------3---------------3-------------------|
-------------------------2---------------2----------2------2---------------|
5^7^5--2-0---------0-----0---------------------4---------------4-----------|
-------------0^2^4-------------------------------------------------0-------|
-------------------------------------------0----------------------------0--|


---------------------------------------------5---------------------------|
5^7-----7^5^7----------7--------5-5-7-8--------7-----5-5^7--------7------|
6^7-----7^6^7----------7--------7-7---7--------7-----6-6^7--------7------|
--------------------------------9-9--------------------------------------|
-------------------------------------------------------------------------|
-----0------------0-------0-----0----------0--------------------0-----0--|


---------7--9--9^12--10------------------------------2-0^2^0---0^2-|
8--8--10-----------------7----8-/10--7------7--------3-------3-----|
7--7---------------------7----7-/9---7--------7------2-------------|
5--5---------------------7----9-/11--7----------7----0-------------|
-------------------------------------------------------------------|
---------------------------0------------0--------------------------|


5----2^3^2--------------------------------------------------------|
2----------5-3---0-2-/3------------------3------------------------|
2-----------------------------------0---------0-------------------|
2------------------------------4------------------4---------------|
0------------------------------------------------------0----------|
--------------------------0---------------------------------0-----|


------------------------------------------------------------------5--3^5^3--|
-10-12-15-12--10------5-7-10-7--5----5^3----0----0--2----2--3----5----------|
-11-12-14-12--11------6-7-9--7--6-----------0--0----2--2----4-4-------------|
--------------------------------------------0-------2-------4---------------|
-----------------0----------------------------------0-------2----4----------|
------------0------0---------0---0----------5-------------------------------|

2---0^2^0---------------------------------------------------------------------|
3---------3------10-12-15-12--10------5-7-10-7--5----5^3----0----0--2----2--3-|
2----------------11-12-14-12--11------6-7-9--7--6-----------0--0----2--2----4-|
0-----------------------------------------------------------0-------2-------4-|
---------------------------------0----------------------------------0-------2-|
-----------------------------0-----0----------0--0----------5-----------------|

---2-------0------------0----0----------0----0-----------0------------|
---3-------3------------3----3----------3----3-----------3------------|
---4-------4-------2--------------------------------------------------|
---5-------5----------4----2----0----------0-----5----4-----2---------|
---2-------0----------0--------------2--------------------------5-4-5-|
---2-------0----------0-----------------------------------------------|


-----------------------------0----0---------0-----0----------0------------|
--7--5--8----7--5--3---------3----3---------3-----3----------3------------|
--------------------------------------------------------------------------|
--7--5--9----7--5--4------4----2----0----------0------5---4-----2---------|
---------------------------------------4--2-------------------------5--4--|
--------------------------------------------------------------------------|


0^2---0-----------------3--2----0----------------------------------------|
3---------3----0---3----3--3-------3--2--3------7---5---8--7^8^7---5--3--|
2--------------0--------2--2---------------------------------------------|
0--------------0--------0--0--------------------7---5---9--9-------5--4--|
-------------------------------------------------------------------------|
---------------5---------------------------------------------------------|


2-------0------------------------------3--2----0-------------------|
3----3--3---------3---2--0-------3-----3--3-------3---2------------|
2--2----2------2---------0----0--------2--2------------------------|
0-------0----------------0--0----------0--0------------------------|
-------------------------------------------------------------------|
-------------------------5-----------------------------------------|


-------------------------------------------------------------------------|
-10-12-15-12---10-------5-7-10-7---5-----5--3--0----0---2----2--3------5-|
-11-12-14-12---11-------6-7-9--7---6-----------0--0-----2--2----4--4-----|
-----------------------------------------------0--------2-------4--------|
------------------0------------------0------------------0-------2------4-|
-------------0------0------------0-------------5-------------------------|


5--3^5^3----2---0^2^0-------------------------------------------------|
------------3---------3----10-12-15-12---10------5-7-10-7---5----5--3-|
------------2--------------11-12-14-12---11------6-7-9--7---6---------|
------------0---------------------------------------------------------|
--------------------------------------------0-------------------------|
---------------------------------------0------0-----------0---0-------|


------------------2--------0--------|
0---0--2---2--3---3--------3--------|
0-0----2-2----4---4--------4--------|
0------2------4---5--------5--------|
-------0------2---2--------0--------|
5-----------------2--------0--------|


---------------------------------------------5---------------------------|
5^7-----7^5^7----------7--------5-5-7-8--------7-----5-5^7--------7------|
6^7-----7^6^7----------7--------7-7---7--------7-----6-6^7--------7------|
--------------------------------9-9--------------------------------------|
-------------------------------------------------------------------------|
-----0------------0-------0-----0----------0--------------------0-----0--|


---------7--9--9^12--10------------------------------2-0^2^0---0^2-|
8--8--10-----------------7----8-/10--7------7--------3-------3-----|
7--7---------------------7----7-/9---7--------7------2-------------|
5--5---------------------7----9-/11--7----------7----0-------------|
-------------------------------------------------------------------|
---------------------------0------------0--------------------------|


5----2^3^2--------------------------------------------------------|
2----------5-3---0-2-/3------------------3------------------------|
2-----------------------------------0---------0-------------------|
2------------------------------4------------------4---------------|
0------------------------------------------------------0----------|
--------------------------0---------------------------------0-----|


3--0--------------------------------------------------|
3-----3--2-----3--------------------3-----------------|
2------------------------------0--------0-------------|
0-------------------------4-----------------4---------|
-----------------------------------------------0------|
---------------------0----------------------------0---|


---------------------------------------------------------|
-------------------------------------3-------------------|
-0------------------------------0----------0-------------|
----2--0------------------4--------------------4---------|
-----------4---/5----------------------------------0-----|
---------------------0--------------------------------0--|

                                Repeat till fade
3--0---------------(---------------------------------------------------------|
3-----3--2---------(--------------3-----------3----------------3-----------3-|
2------------------(--------------0-----------0----------------0-----------0-|
0------------------(----------4-------4-------------------4---------4--------|
-------------------(------0---------------------------0----------------------|
-------------------(--0----------------------------0-------------------------|





Comments


Popular Tommy Emmanuel tabs & chords
And So It Goes Tabs
Daytripper Ladymad Tabs
Field Of Gold Intro Tabs
Footprints Tabs
Guitar Boogie Tabs
I Still Cant Say Goodbye Tabs
Lady Madonna Tabs
Smokey Mountain Lullaby Tabs
Somewhere Over The Rainbow 1 Tabs
Stevies Blues Intro 1 Tabs


Song lyrics



↑ Back to top | Tablatures and chords are parodies/interpretations of the original songs. You may use it for private study, scholarship, research or language learning purposes only
© 2014 AZChords.com Contact us | Privacy policy | DMCA | Add/correct tabs | Request tabs | Top 50 tabs