» » »

Tommy Emmanuel, Stevies Blues Tabs (ver.4)

Artists:  A B C D E F G H I J K L M N O P Q R S T U V W X Y Z # 

Stevies Blues Tabs (ver.4)

Tommy Emmanuel Tabs
 Rating:
4/5 (4 votes)
Stevies Blues lessons Tabs too difficult? Try these video lessons and learn fast
                (Intro)

i decided to make one! Thanks!


E|--------------------------0-3-5----------|
B|----------------------0-3-------0--------|
G|----------------------------------0-3-2-0| <----Play This Twice
D|----------2-2----------------------------|
A|-2-2------0-0------2---------------------|
E|-0-0--3-4-----3-4--0---------------------|

E|--------------------------0-3-5----------|
B|----------------------0-3-------0--------|
G|----------2-2---------------------0-3-2-0|
D|-2-2------0-0------2---------------------|
A|-0-0--3-4-----3-4--0---------------------|
E|-----------------------------------------|

E|----------------------3-3-3--------------|
B|----------------------2-2-2----0---------|
G|---------------------------------3-2-0---|
D|----------2-2----------------------------|
A|-2-2------0-0------2---------------------|
E|-0-0--3-4-----3-4--0---------------------|

E|--------------------------0-3-5----------|
B|---------------------0-3--------0--------|
G|-4444444444-----------------------0-3-2-0|
D|-4444444444-------2----------------------|
A|-2222222222-------0----------------------|
E|-------------3-4-------------------------|
            
Submit corrections

comments powered by Disqus
↑ Back to top | Tommy Emmanuel Tabs for Stevies Blues. Lyrics for acoustic guitar and electric guitar. Tablatures and chords are parodies/interpretations of the original songs. You may use it for private study, scholarship, research or language learning purposes only