>
 >
Stay Close To Me

Stay Close To Me Guitar Tabs

Tommy Emmanuel - Stay Close To Me chords, tabs, tablatures, lyrics

Guitar lessons | Add/correct | Request | Top 50 tabs Artists:  A B C D E F G H I J K L M N O P Q R S T U V W X Y Z 0-9

Stay Close To Me Guitar Tabs – Tommy Emmanuel

CD, Sheet music, Poster

Do you like Stay Close To Me? Share with your friends now
Tabs
This is of Tommy's "only" album and  is a thumb and fingers song no pick or thumb pick.It sounds softer 
this way.This song is pretty straight forward so anyway enjoy.
Tuning:standard capo 2nd fret

e|---0--------0----------0-|-----------0---------0-|----------------------|
B|------------0--0---------|-----------0-----------|----3---3------0h2--3-|
G|---------2--2--2----2----|-----------2-------2---|----------------------|
D|------2-----------2------|--------2--------2-----|------0-----0---------|
A|---0---------------------|-----4-----------------|--2-------2-----------|
E|-------------------------|--2-----------2--------|----------------------|

e|---------------------------|------------------------|----------2h3p2p0-0-|
B|----------3--------0h2-0h2-|---3p2-0-------0h2----0-|--------------------|
G|-------3-------------------|----------2-------------|---2p1--------------|
D|----2-----------2----------|----------1-------------|---0----------------|
A|---------------------------|-2--------2---------2---|--------------------|
E|-2-----------2-------------|-------------2----------|-0---0---0----------|

e|----------------2---------|----2---------2-----|--0------0----------0-|
B|-----------5-------5------|-------5-5----5-----|---------0------------|
G|--------2--2----------2---|---------2----2-----|-------2-2-------2----|
D|-----2-----4--4-------2---|-2-------2-2--------|-----2---------2------|
A|--0--------2----------2h4-|---------5----------|--0---------0---------|
E|--------------------------|-----------------0--|----------------------|

e|----------0-----------0-|-----------------------|------------------------|
B|----------0-------------|----3---3-------0h2--3-|--------3-------0h2-0h2-|
G|----------2--------2----|-----------------------|------3-----------------|
D|-------2--------2-------|------0-------0--------|---2----------2---------|
A|----4-------------------|-2---------2-----------|------------------------|
E|-2-----------2----------|-----------------------|-2----------2-----------|

e|--------------------------|--------------0-------|------------------0-|
B|----3p2--0--------0h2---0-|-----------------2----|-------0-------0----|
G|-------------2--------2---|-------2p1----------4-|----------2----2----|
D|-------------1------------|-----0------0---------|-3--------3----3----|
A|-------------2------------|---2------------------|----0-------0----0--|
E|--2-------------2---------|-0--------------------|--------------------|

e|---------4--5---7--|------------------7--7p5--4-|---------4-----2--4-4h5-|
B|------0--5--7------|-----9----9---9---9--7------|---5--5--5--5-----------|
G|------2------------|-----9----9---9-------------|---4--4-----4-----------|
D|---2---------------|-0------------------0-------|-0----------------------|
A|-0-----------------|----------------------------|------------------------|
E|-------------------|----------------------------|------------------------|

e|---------5---2h4h5p4----|-----------------------|------------------------|
B|---------------------/5-|--------5--------5-5h7-|------------------7-7h9-|
G|----2-------------------|------4-4--4-4-6-------|----4--4--------4-------|
D|----2--2----------------|----6---6--6-----------|----4--4------4---------|
A|------------------------|-4---------------------|------------6-----------|
E|-2---------2------------|-----------------------|-4--------4-------------|

e|------------------------|-------------------------|---9--------12----|
B|-------------------9h10-|---------7h9----10-11/12-|-----12-10-----10-|
G|------6----6------6-----|-------7-----------------|------------------|
D|------6---------6-------|-----7-------------11/12-|--------11--------|
A|----8---------8---------|---9---------------------|------------------|
E|-6-------6--------------|-7------------7----------|-0--------------0-|

e|-------------------|-0-------0----------0-|----------0----------0--|
B|-9--9h10---10h9--7-|---------0--0---------|----------0-------------|
G|----9-------9h9--7-|------2--2--2----2----|----------2--------2----|
D|-9--9h11---11h9--7-|---2-----------2------|-------2--------2-------|
A|-------------------|-0--------------------|----4-------------------|
E|-------------------|----------------------|-2-----------2----------|

e|----------------------|------------------------|------------------------|
B|-----3--3-------0h2-3-|-----3-3---------3--0h2-|---3p2p0-------0h2----0-|
G|------2---2--2--------|-----3-3----------------|----------2---------2---|
D|------0---0--0--------|---2-2--------2---------|----------1-------------|
A|-2--------------------|------------------------|-2--------2-------------|
E|----------------------|-2---------2------------|-------------2----------|

e|---------------2h3p2-0-0-|-----------2---------|----2----------2----|
B|-------------------------|-----5-5------5------|-------5-------5----|
G|-------2p1---------------|-------2---------2---|----------2----2--2-|
D|-----0-------------------|---2---4-4-------2---|-2--------2-------2-|
A|---2---------------------|-0-----2---------2h4-|----------5-------5-|
E|-0----------0------------|---------------------|-------------0----0-|

e|-0------0-----0h2-----0-|------------0------0--0-|-----------------------|
B|------------------0h2---|------------0------0----|-----3--3--------0h2-3-|
G|-----2------------------|-------1h2--------------|--------2--------------|
D|---2--------------------|-----2-----------2------|---0----------0--------|
A|-0---------0------------|---4--------------------|-2---------2-----------|
E|------------------------|-2-------------2--------|-----------------------|

e|----------------0-----|------------------------|--------------0-----|
B|--------3---------0h2-|----3p2p0-------0h2---0-|------------------2-|
G|------3---------------|-----------2--------2---|------2p1-----------|
D|----2--------2--------|-----------1------------|--------------------|
A|----------------------|-2---------2------------|---2----------------|
E|-2--------2-----------|--------------2---------|-0---------0--------|

e|-------------------0------|-----------------------------------|
B|---------2------------0h2-|-0---------------------------------|
G|-4----------2-------------|-----------0h2------------0----2---|
D|-----0--------------------|-3-----3---------------------------|
A|--------------------------|-----3---------------3---------3---|
E|-3--------------3---------|-1--------------1------------------|

e|----0-------------0------------|--------------5-|------------------5-7-|
B|------------------0---0--------|-------2--3---3-|---------0------5-----|
G|------2---1-------1---1--------|----------2---2-|-----------6-7--------|
D|-------------------------------|----2-----2---2-|----------------------|
A|------3---2--------------------|-0--------2---2-|-----12+--------------|
E|-0------------0----------0h2h4-|--------------0-|-12+------------------|

e|---10\9----7h8p7-----------------|-----------0-----------||
B|-------------------10--/5----\3--|---------0---0---------||
G|---10------7-----------/6----\4--|-------6-------6-------||
D|-----------------------/6----\4--|-----7-----------7-----||
A|---------------------------------|---7---------------7---||
E|----------------------------0----|-5-------------------5-||
That's it keep on pickin. 
| /  slide up
| \  slide down
| h  hammer-on
| p  pull-off
| ~  vibrato
| +  harmonic
| x  Mute note





Comments


Popular Tommy Emmanuel tabs & chords
Angelina 2 Tabs
Angelina 3 Tabs
Back On The Terra Firma Tabs
Guitar Boogie 3 Tabs
Hunt Tabs
Hunt 2 Tabs
Robin Intro Tabs
Somewhere Over The Rainbow Tabs
Stevies Blues Tabs
Those Who Wait Intro Tabs


Song lyrics



↑ Back to top | Tablatures and chords are parodies/interpretations of the original songs. You may use it for private study, scholarship, research or language learning purposes only
© 2014 AZChords.com Contact us | Privacy policy | DMCA | Add/correct tabs | Request tabs | Top 50 tabs