» » »

Tommy Emmanuel, Mr Tabs (ver.1)

Artists:  A B C D E F G H I J K L M N O P Q R S T U V W X Y Z # 

Mr Tabs (ver.1)

Tommy Emmanuel Tabs
 Rating:
4/5 (4 votes)
Mr lessons Tabs too difficult? Try these video lessons and learn fast
1
                (Guitar)
Mr. Guitar


I didn't see any tabs for this one. This is a great, and fun song. I didn't get
all the alternating thumb picking down. You can fill that in as you go. 


Tab Notes:
Tuning: Standard
h = hammer on
P = pull off
/ = slide
** Measure marks not necessarily correct. Listen to the song to get the phrasing


Intro
     Fmaj7                           (slide E7 shape up)
e ---------0-----0-------0-----0---|--------------------0--------|
B -----0-----0-------0-----0-------|---0-----0-----0---4---------|
G -2h3---2-----2---2---2-----2-----|-1---1-2---2-3---3-----------|
D -------------------------0-------|-----------------------------|
A -----------3------3----3----3----|-2-----3-----4-----5---------|
E -----1---1---1-------1---1----1--|----------------------0-2-4--|


Verse 1
     A  Asus    G2    D6 
e -------0-----------------|
B -0h2-3---3-2----0----0---|
G ---2------------2----2---|
D ---2------------0----0---|
A -0---------0-------------|
E -------0------3----2-----|


     A  Asus       D   G#dim 
e -------0---------2----4-----|
B -0h2-3---3-2-0---3----3-----|
G ---2-----------2-2----4-----|
D ---2-------------0----3-----|
A -0---------0----------------|
E -------0------------0----4--|


   F#m7   C#m     D       A         B7  B7/F    E
e -5--4-2---------0h2-0-----------|---2--2---2--0-------------|
B -2-------5----5-3-----3-0h2p0---|-0----0---0--0----1/3--0---|
G -2-------6--6---2------------2--|-2----2---2--1---------1---|
D -2-------6------0---------------|-1----x---x--2----2/4--0---|
A -4-------4--------------0-------|-2--------2--2-------------|
E -2------------------------------|------1---1--0-------------|


Verse 2 (same as verse 1 except for ending)
     A  Asus    G2    D6 
e -------0-----------------|
B -0h2-3---3-2----0----0---|
G ---2------------2----2---|
D ---2------------0----0---|
A -0---------0-------------|
E -------0------3----2-----|


     A  Asus       D   G#dim 
e -------0---------2----4-----|
B -0h2-3---3-2-0---3----3-----|
G ---2-----------2-2----4-----|
D ---2-------------0----3-----|
A -0---------0----------------|
E -------0------------0----4--|


   F#m7   C#m      D     A         B7   E       A2
e -5--4-2----------0h2-----------|---2-----2/7--5---|
B -2-------5----5--3---3-0h2p0---|-0----0-------2---|
G -2-------6--6----2----------2--|-2----1--2/7--4---|
D -2-------6-------0-------------|-1------------2---|
A -4-------4-------------0-------|-2----2-------0---|
E -2-----------------------------|------0-----------|


Chorus
     Fmaj7                             A 
e ------0---------------0------------|----------------------------|
B -----0--3-1-0---0-1-3---1-0---0----|----0------0------0------0--|
G ----2---------2-------------2---2--|--2---2--2---2--2---2--2----|      
D ---3-------------------------------|--2------3------4------5----|
A -----------------------------------|--0------0------0------0----|
E --1--------------------------------|----------------------------|


     Fmaj7                             Bb#11      Dm 
e ------0---------------0------------|---0-----1--5--7--9/10/9--5h7--5--4--|
B -----0--3-1-0---0-1-3---1-0---0----|--3--3------6------------------------|
G ----2---------2-------------2---2--|--3----3----7-----9/10/9--7----6-----|      
D ---3-------------------------------|--0---------0------------------------|
A -----------------------------------|--1----------------------------------|
E --1--------------------------------|-------------------------------------|

                                
e ---4----0h2p0----------|
B -7---7--------3p0------|
G -----------------1-----|
D -7----------------2----|
A -----------------------|
E -----------------------|

[REPEAT verse 1, verse 2, chorus, verse 2]


   F#m7   C#m      D     A         B7   E       A2
e -5--4-2----------0h2-----------|---2-----2/7--5---|
B -2-------5----5--3---3-0h2p0---|-0----0-------2---|
G -2-------6--6----2----------2--|-2----1--2/7--4---|
D -2-------6-------0-------------|-1------------2---|
A -4-------4-------------0-------|-2----2-------0---|
E -2-----------------------------|------0-----------|


Outro
     Fmaj7                           (slide E7 shape up)
e ---------0-----0-------0-----0---|--------------------0--------|
B -----0-----0-------0-----0-------|---0-----0-----0---4---------|
G -2h3---2-----2---2---2-----2-----|-1---1-2---2-3---3-----------|
D -------------------------0-------|-----------------------------|
A -----------3------3----3----3----|-2-----3-----4-----5---------|
E -----1---1---1-------1---1----1--|----------------------0-2-4--|


                                                  A2
e --0-5p4p2p0-2p0------------------------------|--5-----|
B -----------5---5p2p0-2-0---------------------|--0-----|
G --------------------4---4p2/1-2/1------------|--6-----|
D -----------------------------4---4-2-0-------|--7-----|
A ---------------------------------------4-2-0-|--------|
E ---------------------------------------------|--------|
            
Submit corrections

comments powered by Disqus
↑ Back to top | Tommy Emmanuel Tabs for Mr. Lyrics for acoustic guitar and electric guitar. 1 Tablatures and chords are parodies/interpretations of the original songs. You may use it for private study, scholarship, research or language learning purposes only