>
 >
Biskie

Biskie Guitar Tabs

Tommy Emmanuel - Biskie chords, tabs, tablatures, lyrics

Guitar lessons | Add/correct | Request | Top 50 tabs Artists:  A B C D E F G H I J K L M N O P Q R S T U V W X Y Z 0-9

Biskie Guitar Tabs – Tommy Emmanuel

CD, Sheet music, Poster

Do you like Biskie? Share with your friends now
Tabs
                                    Biskie                                      


      E  E  E  E  E  E  E  E     E  E  E  E  E  E  E  E   
E||------3--4--0-----4--------|--------3-----0--3-----0--|
B||------2--3--0--2--3--0--1--|--2--------2--------------|
G||*--------------------------|-----0--------------------|
D||*--------------------------|--------2-----------2-----|
A||---------------------------|--0-----------0-----------|
E||---0-----------------------|--------------------------|


  E  E  E  E  E  E  E  E     E  E  Q    Q    Q       E  E  E  E  E  E  E  E   
-----3--4--0-----4--------|-----0-----------------|-----3--4--0-----4--------|
-----2--3--0--2--3-----0--|-----------------------|-----2--3--0--2--3--0--1--|
--------------------------|-----------------------|--------------------------|
--------------------0-----|-----------------------|--------------------------|
--------------------------|--4--------------------|--------------------------|
--0-----------------------|--------2----5----3----|--0-----------------------|


                       ^                              
  E  E  E  E  E  E  E  E      E  E  Q    E  E  Q      
--------3-----0--3-----0~--|-------------------3~----|
--2--------2-----------3~--|-------------------0~----|
-----0-----------------3~--|-------------3-----3~----|
--------2-----------2------|-----2----------2--------|
--0-----------0------------|-------------------------|
---------------------------|--3-----3----------------|


  E  E  E  E  E  E  E  E       E  E  E  E  E  E  E  E     E  E  Q    Q    Q     
-----------3-----2-----0---||--------2--0-----------5--|-----5-------5----5----|
-----------0-----0-----0---||--------0--0-----0-----1--|-----2-------3----4----|
-----3-----3-----2-----1--*||-----3--2--1--------------|-----------------------|
--------2-----------1-----*||--------1-----------0-----|--1-----2----3----4----|
---------------------------||--------------------------|-----------------------|
--3-----------3------------||--3-----------0-----------|-----------------------|


  E  E  E  E  E  E  E  E     E  E  E  E  E  E  E  E     E  E  E  E  E  E  Q     
--5--------7--------------|-----0--------0--------0--|--------0--------0-------|
-----8--6--------5-----5--|--9-----9--8-----9--8-----|--9--8-----9--8----------|
--------------------------|--------7--------7--------|--7--------7-------------|
--------5-----------5-----|--------9-----------9-----|--------9-----------9----|
--0-----------0-----------|--------------------------|-------------------------|
--------------------------|--0-----------0-----------|--0-----------0----------|


  E  E  Q    Q    Q       E  E  E  E  E  E  E  E     E  E  E  E  E  E  E  E   
-----5-------5----5----|--5--------7-----------4--|-----------------4-----2--|
-----1--2----3----4----|-----8--5--------5--------|-----7-----6--------------|
-----------------------|--------------------------|--------------------------|
-----1--2----3----4----|--------5-----------5-----|--------------------6-----|
--0--------------------|--0-----------0-----------|--------6-----4-----------|
-----------------------|--------------------------|--4-----------------------|


  E  E  E  E  E  E  E  E     E  E  E  E  E  E  E  E   
-----------------2-----0--|-----3--4--0-----4--------|
-----5-----4--------------|-----2--3--0--2--3--0--1--|
--------------------------|--------------------------|
--------------------4-----|--------------------------|
--------4-----2-----------|--------------------------|
--2-----------------------|--0-----------------------|


  E  E  E  E  E  E  E  E     E  E  E  E  E  E  E  E     E  E  Q    Q    Q     
--------3-----0--3-----0--|-----3--4--0-----4--------|-----0-----------------|
--2--------2--------------|-----2--3--0--2--3-----0--|-----------------------|
-----0--------------------|--------------------------|-----------------------|
--------2-----------2-----|--------------------0-----|-----------------------|
--0-----------0-----------|--------------------------|--4--------------------|
--------------------------|--0-----------------------|--------2----5----3----|


                                                  ^    
  E  E  E  E  E  E  E  E     E  E  E  E  E  E  E  E    
-----3--4--0-----4--------|--------3-----0--3-----0~--|
-----2--3--0--2--3--0--1--|--2--------2-----------3~--|
--------------------------|-----0-----------------3~--|
--------------------------|--------2-----------2------|
--------------------------|--0-----------0------------|
--0-----------------------|---------------------------|


  E  E  Q    E  E  Q        Q    E  Q    E  Q       Q    Q    Q    Q     
-------------------3~----|----------2----0-------|--1----0---------1----|
-------------------0~----|----------0----0-------|--3----3----3---------|
-------------3-----3~----|-------3--2----1-------|--3---------3---------|
-----2----------2--------|----------1------------|--0----0---------0----|
-------------------------|-----------------------|----------------------|
--3-----3----------------|--3---------------0----|--3---------3---------|


  Q    Q    Q    E  E     Q    Q    Q    Q       E  E  Q    Q    E  E   
-------0---------------|--1----0---------1----|-----0------------1-----|
-----------------3-----|------------3---------|--------3---------------|
-----------------3-----|------------2---------|--------2---------------|
-------0------------0--|-------3---------3----|-----3---------------3--|
-----------------------|----------------------|------------------------|
--3---------3----------|--1---------1---------|--1----------1----------|


  Q    Q    Q    Q       Q    E  E  E  E  Q     
--1----0---------1----|-------0--------1-------|
--3---------3---------|----------3-------------|
--3---------3---------|------------------------|
-------0---------0----|-------0-----------0----|
----------------------|------------------------|
--3---------3---------|--3----------3----------|


  |---3--|  |--3--|  |--3--|  |--3--|     |--3--|  |--3--|  |--3--|  |--3--|   
  E  E   E  E  E  E  E  E  E  E  E  E     E  E  E  E  E  E  E  E  E  E  E  E   
---------------------------------------|--------------------------------------|
---------------------------------------|--------------------------------------|
--------10--------9--------8--------7--|--------6--------3--------3--------4--|
-----9---------8--------7--------6-----|-----5--------2--------2--------3-----|
--8---------7--------6--------5--------|--4--------0--------1--------2--------|
---------------------------------------|--------------------------------------|


  Q    Q    Q    Q       E  E  E  E  E  E  E  E      Q    E   E  E  Q    E   
--1----0---------1----|-----0--------1--0-----1~--|-------4b-----1----------|
--3----3----3---------|-----3-----3--3--------3~--|-----------------3----1--|
--3---------3---------|-----------------------2~--|-----------------2-------|
--0----0---------0----|--------0-----------0------|-----------3-------------|
----------------------|---------------------------|-------------------------|
--3---------3---------|--3-----------3------------|--1----------------------|


  E  E   E  E  E  E  E  E     E  E  E  E  E  E  Q       Q    Q    Q    E  E     
--1---------1--------------|-------------------------|------------6-------4b~--|
-----4b-----------1--------|-----6--------6----------|-------6----4------------|
---------2-----------2--6--|--7-----6--6-----7--5----|-------------------------|
--3------------3-----------|-------------------------|-------------------------|
---------------------------|-------------------------|-----------------5-------|
---------------------------|--6-----------7----------|--8----------------------|


  E  E  E  E  E  E  E  E     E  E  E  E  Q    Q        Q    Q    Q    Q     
-----3--1-----1-----------|-------------------------|--5---------5----5----|
-----------4--1-----------|-------------------------|--1----2----3----4----|
-----------------4--3--1--|--2----------------------|----------------------|
--------------------------|-----3--1-----1----------|-------2----3----4----|
--------------------------|-----------3-------3~----|--0-------------------|
--3-----------------------|-------------------------|----------------------|


  E  E  E  E  E  E  E  E     E  E  E  E  E  E  E  E   
--5--------7--------------|-----0--------0--------0--|
-----8--5--------5-----8--|--9-----9--8-----9--8-----|
--------------------------|--------7--------7--------|
--------5-----------5-----|--------9-----------9-----|
--0-----------0-----------|--------------------------|
--------------------------|--0-----------0-----------|


  E  E  E  E  E  E  Q        Q      Q    Q    Q       E  E  E  E  E  E  E  E   
--------0--------0--------|---------5----5----5----|--5--------7-----------4--|
--9--8-----9--8-----------|-------1g2----3----4----|-----8--5--------5--------|
--7--------7--------------|------------------------|--------------------------|
--------9-----------9~----|-------1g2----3----4----|--------5-----------5-----|
--------------------------|--0---------------------|--0-----------0-----------|
--0-----------0-----------|------------------------|--------------------------|


  E  E  E  E  E  E  E  E     E  E  E  E  E  E  E  E   
--L--------------------4--|--2--------------0-----0--|
--------7-----6-----7-----|-----5-----4--------4-----|
--------------------------|--------------------------|
-----------------------6--|--------------------------|
-----------6-----4--------|--------4-----2-----------|
-----4--------------------|--2-----------------------|


    E  E  E  E  E  E  E  E     E  E  E  E  E  E  E  E   
|------3--4--0-----4--------|--------3-----0--3-----0--|
|------2--3--0--2--3--0--1--|--2--------2--------------|
|*--------------------------|-----0--------------------|
|*--------------------------|--------2-----------2-----|
|---------------------------|--0-----------0-----------|
|---0-----------------------|--------------------------|


  E  E  E  E  E  E  E  E     E  E  Q    Q    Q       E  E  E  E  E  E  E  E   
-----3--4--0-----4--------|-----0-----------------|-----3--4--0-----4--------|
-----2--3--0--2--3-----0--|-----------------------|-----2--3--0--2--3--0--1--|
--------------------------|-----------------------|--------------------------|
--------------------0-----|-----------------------|--------------------------|
--------------------------|--4--------------------|--------------------------|
--0-----------------------|--------2----5----3----|--0-----------------------|


                       ^                              
  E  E  E  E  E  E  E  E      E  E  Q    E  E  Q      
--------3-----0--3-----0~--|-------------------3~----|
--2--------2-----------3~--|-------------------0~----|
-----0-----------------3~--|-------------3-----3~----|
--------2-----------2------|-----2----------2--------|
--0-----------0------------|-------------------------|
---------------------------|--3-----3----------------|


  E  E  E  E  E  E  E  E       E  E  E  Q    Q    E   
-----------3-----2-----0---||--------2--0------------|
-----------0-----0-----0---||--------0--0------------|
-----3-----3-----2-----1--*||-----3--2--1------------|
--------2-----------1-----*||--------1---------------|
---------------------------||------------------------|
--3-----------3------------||--3------------------0--|


  |--3--|  |--3--|  |--3--|  |--3--|           |--3--|               
  E  E  E  E  E  E  E  E  E  E  E  E     E  E  E  E  E  E  E  E  E   
-----------------------------------0--|--5--0--3--4--0--------------|
--------------------------0-----3-----|-----------------0--3--2--0--|
--------0--------0-----2-----4--------|-----------------------------|
-----2--------2-----4-----------------|-----------------------------|
-----------4--------------------------|-----------------------------|
--4-----------------------------------|-----------------------------|


  |--3--|  |--3--|  |--3--|  |--3--|                               
  E  E  E  E  E  E  E  E  E  E  E  E     E  E  E  E  Q      Q      
--3--2--0-----------------------------|--------------0~-----0----||
-----------3--2--0--------------------|--------------2~----14----||
--------------------2--1--0-----------|--------------1~----13----||
-----------------------------2--1--0--|--------1--2--2~-----0----||
--------------------------------------|--2--4--------2~----14----||
--------------------------------------|--------------0~-----0----||




Duration Legend
---------------
W - whole
H - half
Q - quarter
E - 8th
S - 16th
T - 32nd
X - 64th
. - note dotted
|-n-|  - n-tuplets


Tablature Legend
----------------
L - tied note
x - dead note
g - grace note
(n) - ghost note
> - accentuded note
NH - natural harmonic
AH - artificial harmonic
TH - tapped harmonic
SH - semi harmonic
PH - pitch harmonic
h - hammer on
p - pull off
b - bend
br - bendRelease
pb - preBend
pbr - preBendRelease
brb - bendReleaseBend
\n/ - tremolo bar dip
\n - tremolo bar dive
-/n - tremolo bar Release up
/n\ - tremolo bar inverted dip
/n - tremolo bar return
-\n - tremolo bar Release down
S - shift slide
s - legato slide
/ -  slide into from below or out of upwards
\ -  slide into from above or out of downwards
~ - vibrato
W - wide vibrato
tr - trill
TP - tremolo picking
T - tapping
S - slap
P - pop
< - fade in
^ - brush up
v - brush down





Comments


Popular Tommy Emmanuel tabs & chords
Amazing Grace Tabs
Angelina 1 Tabs
Classical Gas Live Intro Tabs
Daytripper Ladymad Tabs
Guitar Boogie 1 Tabs
Hearts Grow Fonder Tabs
Purple Haze Reddit Tabs
Robin Intro Tabs
Stay Close To Me Tabs
The Journey Tabs


Song lyrics



↑ Back to top | Tablatures and chords are parodies/interpretations of the original songs. You may use it for private study, scholarship, research or language learning purposes only
© 2014 AZChords.com Contact us | Privacy policy | DMCA | Add/correct tabs | Request tabs | Top 50 tabs