>
 >
Angelina 1

Angelina 1 Guitar Tabs

Tommy Emmanuel - Angelina 1 chords, tabs, tablatures, lyrics

Guitar lessons | Add/correct | Request | Top 50 tabs Artists:  A B C D E F G H I J K L M N O P Q R S T U V W X Y Z 0-9

Angelina 1 Guitar Tabs – Tommy Emmanuel

CD, Sheet music, Poster

Do you like Angelina 1? Share with your friends now
TabsTabs v2Tabs v3Tabs v4Tabs v5
----------------------------------------------------------------------------
                             Angelina - Tommy Emmanuel
----------------------------------------------------------------------------
Tuning: Drop D
Capo 2nd Fret

e|--0-------------------0---------------|<-Repeat|-0-|
B|-3-----2----0--------3-----2----0-----| 4 times|-0-|
G|2-----2----2----2---2-----2----2-----2|        |-2-|   INTRO
D|-----0----0----0---0-----0----0-----0-| Finish |-0-|
A|------------------0-------------------| with-> |-0-|
E|----0----4----5---------0----4----5---|        |-5-|

e|--0-0h2----5----x------x-0----------2-3-2----------------x-------|
B|-3--3------2----x-3----x-2---2-----3------3--3--3---3--3-x-3-----|
G|2---2----2-2--2-x-4--4-x-0--0-----4-------5--5--2--2---1-x-0--0--|
D|--------0----0--x-0-0--x-2-2-----4--------5-5---0-0----0-x-2-2---|VERSE #1
A|-------0--------x------x-1------2---------3--------------x-0-----|
E|----0------4----x-5----x------------------------3------2-x-------|

e|-0h2----5------x------x-0----0-0h2-2\3-2-2\5-2h3p2p0---------------|
B|-3------2------x-3----x-3---3----------------------------1\3----2--|
G|-2----2------2-x-2--2-x-0--0---0h2-3\4-2-3\6-2---------1-2\4----2--|
D|-----0------0--x-4-4--x-3-3---------------------------0--3\5--5-2--|V #2
A|----0----------x-2----x-1------------------------------------0-----|
E|-0--------4----x------x------------------------------2-------------|

REPEAT VERSE #1 AGAIN THEN MOVE TO VERSE #3          *
                                                     v
e|-0h2----3------5---7------7-5h7-5------3---------3----------0--------0---|
B|-3----------3----5-5-----5--5---5-5h7--3h6\7/6---3-3--------3--------3---|
G|-2----2------0-----7----7---7---6-5h7--5--\6/5---4-0h2--2-2-2-0------2--2|
D|-----0-----0----0------5----------5-------------3------0--0----4-2-0---4-|
A|----0-----------------5-----------------------------------0--------------|
E|-0--------2----4-----5-------------------------3---0------0----------0---|

e|0-------|
B|---2h3\-|
G|--------|
D|--------|  VERSE #3
A|--------|
E|--0-----|

      d u d u d u                       u
e|----0-0-0-0-0-0--0------------0-5/----0--------------0---0----5-x-2---0--|
B|----7---7---7----7---7-------7----3---3------------2\3-3-3----3-x-3p2-0--|
G|----7---7---7----7--7---7---7--7-----1--------2-3-4--------2----x-2---0-2|
D|--9----------------8---8---7--------0--------0--------0---0-----x-4p2-0--|
A|--------------------------0-------------------------------------x--------|
E|-9---------------8----8------------2----2-4-5--------5---4---4--x------5-|

e|-----0--x--2h3p2p0-2-x-0-|
B|---2\3--x--0-------0-x-3-|
G|3-4---4-x--0---------x-3-|
D|--------x------------x---|  BRIDGE
A|--------x------------x---|
E|-----5--x-2----------x-4-|                           

            u
e|-0-0-0----0--------0-0-5/----0--------------0---0----5---x-5-5\4p2-2---|
B|-7----7-----------7------3---3------------2\3-3-3----3---x-3-3-----3-3-|
G|-7--7----7---7---7----7-----1--------2-3-4--------2------x-4-----------|
D|-9------8---8---7----------0--------0--------0---0-----4-x-------------|
A|-0-------------0--------------------------------------2--x-------------|
E|-9-----8---8--------------2----2-4-5--------5---4---4----x--2-------2--|

e|2h4/5-9-9-7h9-7-9-5h7/8\7-5------3p2p0-----------0-2h3p2p0-0-|
B|------7-7-7---7-7-6-------------------3p2p0-0h2h3---------3--|
G|------9-9-7h9-7-9-7-------7----------------3-----------------|
D|------7-----------------------8+-----------------------------|BRIDGE CONT.
A|------7----------------------8+------------------------------|
E|----------------------------8+-------------------------------|

REPEAT BEGINNING OF SONG UP TO VERSE #3* THEN MOVE TO FINAL VERSE
                     u       u
e|-----5h7-5-----3---3-3-----0-0----|
B|-3---5---5-5h7-5---5-3-3---3-3----|
G|-0h2-7---6-5h7-5---5-3-0h2-2-2h4\-|
D|-----------5------3-------0-------|  FINAL VERSE
A|-----------------3----------------|
E|-0--------------3------0----0-----|

e|---------------12+---12+---------------12+-------------------12+---12+-|
B|-----------------7+-7+-------------------7+-7+-----------------7+-7+---|
G|--------------7+--5+---7+------------7+---5+-7+-------------7+--5+---7+|
D|-------12+---7+---------------12+---7+--------7+-----12+---7-----------|
A|-12+--12+-7+-------------12+-12+-7+-------------12+-12+-7+-------------|
E|---12+-----4+--------------12+----4+--------------12+----4+------------|

e|----------------2h3p2p0---------2---|
B|----------7------------3--------3---|
G|--------12+-------------2h4p2p0-2---|
D| -----12+--7+-------------------2h4-|   ENDING
A|12+-12+------7+-----------------0---|
E|--12+-------7+----------------------|


| /  slide up
| \  slide down
| h  hammer-on
| p  pull-off
| ~  vibrato
| +  harmonic
| x  Mute note
============================================================================





Comments


Popular Tommy Emmanuel tabs & chords
Blue Moon Tabs
Borsalino Tabs
Classical Gas Tabs
Dixie Mcguire Tabs
Hearts Grow Fonder Tabs
I Still Cant Say Goodbye Tabs
Ol' Brother Hubbard Tabs
Stay Close To Me Tabs
Stevies Blues 2 Tabs
Those Who Wait Tabs


Song lyrics



↑ Back to top | Tablatures and chords are parodies/interpretations of the original songs. You may use it for private study, scholarship, research or language learning purposes only
© 2014 AZChords.com Contact us | Privacy policy | DMCA | Add/correct tabs | Request tabs | Top 50 tabs