» » »

My Vampire Heart Tabs (ver.1)

Artists:  A B C D E F G H I J K L M N O P Q R S T U V W X Y Z # 

My Vampire Heart Tabs (ver.1)

Tom Mcrae
Rating:
5/5 (3 votes)

Tabs too difficult? Try these video lessons and learn fast.
                
By Tom McRae

*****CAPO 2*****

Chords:

Am- x0221x
F- x3321x
C- x3201x
G- 32003x
Em- 02200x

Right, this is far from exact because he varies the picking so much, he doesn't even
pick at all sometimes in the latter stages but I reeeeeeeeeeally can't be bothered to
get every single bar exact so just use this as your template and if you want to be a
completist then please vary it accordingly

            Am
          E--------------------------h---------------------|
          B-------------0-----------0-1---------1-----1----|
          G---2-----2-----2---2---2-----2---------2-----2--|
          D-----2-----2-----2---2---------2---2------------|
          A-0-----0-------------------------0-------0------|
          E------------------------------------------------|
Darling I'm lost                            I drift in the
Something is found                          Something is

  F
E--------------------------h---------------------|
B-------------0-----------0-1---------1-----1----|
G---2-----2-----2---2---2-----2---------2-----2--|
D-----3-----3-----3---3---------3---3------------|
A-3-----3-------------------------3-------3------|
E------------------------------------------------|
  dark                            And clutching your
  lost                            Looking for

  Am
E--------------------------h---------------------|
B-------------0-----------0-1---------1-----1----|
G---2-----2-----2---2---2-----2---------2-----2--|
D-----2-----2-----2---2---------2---2------------|
A-0-----0-------------------------0-------0------|
E------------------------------------------------|
  words                           To my vampire
  clues                           In the streets of

  F
E-------------------------|
B-------------0-----1-----|
G---2-----2-----2-----2---|
D-----3-----3-----3-----3-|
A-3-----3-----------------|
E-------------------------|
  heart once more                 So let in the
  old New York                    And I spilt someone's

  Am
E--------------------------h---------------------|
B-------------0-----------0-1---------1-----1----|
G---2-----2-----2---2---2-----2---------2-----2--|
D-----2-----2-----2---2---------2---2------------|
A-0-----0-------------------------0-------0------|
E------------------------------------------------|
  light                           Turn my to
  blood                           I broke someone's

  F
E--------------------------h---------------------|
B-------------0-----------0-1---------1-----1----|
G---2-----2-----2---2---2-----2---------2-----2--|
D-----3-----3-----3---3---------3---3------------|
A-3-----3-------------------------3-------3------|
E------------------------------------------------|
  dust                            If it don't end in
  heart again                     Someone you

  Am
E--------------------------h---------------------|
B-------------0-----------0-1---------1-----1----|
G---2-----2-----2---2---2-----2---------2-----2--|
D-----2-----2-----2---2---------2---2------------|
A-0-----0-------------------------0-------0------|
E------------------------------------------------|
  bloodshed dear                  It's probably not
  knew                            I'm looking at

  F
E--------------------------h---------------------|
B-------------0-----------0-1---------1-----1----|
G---2-----2-----2---2---2-----2---------2-----2--|
D-----3-----3-----3---3---------3---3------------|
A-3-----3-------------------------3-------3------|
E------------------------------------------------|
  Love                            Here we
  you my friend                   And the

(FIRST TIME ROUND PLAY THIS:)

  C                       G                       F
E-------------------------------------------------------------------------------------------------|
B-------------1-----1-----------------3-----3-----------------1-----1-----------------1-----1-----|
G---0-----0-----0-----0-----0-----0-----0-----0-----2-----2-----2-----2-----2-----2-----2-----2---|
D-----2-----2-----2-----2-----0-----0-----0-----0-----3-----3-----3-----3-----3-----3-----3-----3-|
A-3-----3-----------------------------------------3-----3-----------------3-----3-----------------|
E-------------------------3-----3-----------------------------------------------------------------|
  are              in the darkest                 place                                  
 my ref-

  C                       G                       F
E-------------------------------------------------------------------------------------------------|
B-------------1-----1-----------------3-----3-----------------1-----1-----------------1-----1-----|
G---0-----0-----0-----0-----0-----0-----0-----0-----2-----2-----2-----2-----2-----2-----2-----2---|
D-----2-----2-----2-----2-----0-----0-----0-----0-----3-----3-----3-----3-----3-----3-----3-----3-|
A-3-----3-----------------------------------------3-----3-----------------3-----3-----------------|
E-------------------------3-----3-----------------------------------------------------------------|
  lection           shows only               your face

(SECOND TIME ROUND PLAY THIS:)

  Em                      Am                       Em                     Am
E-------------------------------------------------------------------------------------------------|
B-------------0-----0-----------------1-----1-----------------0-----0-----------------1-----1-----|
G---0-----0-----0-----0-----2-----2-----2-----2-----0-----0-----0-----0-----2-----2-----2-----2---|
D-----2-----2-----2-----2-----2-----2-----2-----2-----2-----2-----2-----2-----2-----2-----2-----2-|
A-------------------------0-----------------------------------------------0-----0-----------------|
E-0-----0-----------------------------------------0-----0-----------------------------------------|
  people           in our lives                we all leave              behind          leave


  F
E--------------------------|
B-------------1------1-----|
G---2-----2-----2------2---|
D-----3-----3--------------|
A-3-----3----------3-----3-|
E--------------------------|
behind                     Here we

  C                       G                       F
E-------------------------------------------------------------------------------------------------|
B-------------1-----1-----------------3-----3-----------------1-----1-----------------1-----1-----|
G---0-----0-----0-----0-----0-----0-----0-----0-----2-----2-----2-----2-----2-----2-----2-----2---|
D-----2-----2-----2-----2-----0-----0-----0-----0-----3-----3-----3-----3-----3-----3-----3-----3-|
A-3-----3-----------------------------------------3-----3-----------------3-----3-----------------|
E-------------------------3-----3-----------------------------------------------------------------|
  are              in the darkest                 place                          to keep 
for-

  C                       G                       F
E-------------------------------------------------------------------------------------------------|
B-------------1-----1-----------------3-----3-----------------1-----1-----------------1-----1-----|
G---0-----0-----0-----0-----0-----0-----0-----0-----2-----2-----2-----2-----2-----2-----2-----2---|
D-----2-----2-----2-----2-----0-----0-----0-----0-----3-----3-----3-----3-----3-----3-----3-----3-|
A-3-----3-----------------------------------------3-----3-----------------3-----3-----------------|
E-------------------------3-----3-----------------------------------------------------------------|
  getting               a picture               your face                               
I

  C                       G                       F
E-------------------------------------------------------------------------------------------------|
B-------------1-----1-----------------3-----3-----------------1-----1-----------------1-----1-----|
G---0-----0-----0-----0-----0-----0-----0-----0-----2-----2-----2-----2-----2-----2-----2-----2---|
D-----2-----2-----2-----2-----0-----0-----0-----0-----3-----3-----3-----3-----3-----3-----3-----3-|
A-3-----3-----------------------------------------3-----3-----------------3-----3-----------------|
E-------------------------3-----3-----------------------------------------------------------------|
  wonder             what we can                accost                                
is

  C                       G                       F
E-------------------------------------------------------------------------------------------------|
B-------------1-----1-----------------3-----3-----------------1-----1-----------------1-----1-----|
G---0-----0-----0-----0-----0-----0-----0-----0-----2-----2-----2-----2-----2-----2-----2-----2---|
D-----2-----2-----2-----2-----0-----0-----0-----0-----3-----3-----3-----3-----3-----3-----3-----3-|
A-3-----3-----------------------------------------3-----3-----------------3-----3-----------------|
E-------------------------3-----3-----------------------------------------------------------------|
  sweeter                                love or its loss                             So I

  C                       G                       F
E-------------------------------------------------------------------------------------------------|
B-------------1-----1-----------------3-----3-----------------1-----1-----------------1-----1-----|
G---0-----0-----0-----0-----0-----0-----0-----0-----2-----2-----2-----2-----2-----2-----2-----2---|
D-----2-----2-----2-----2-----0-----0-----0-----0-----3-----3-----3-----3-----3-----3-----3-----3-|
A-3-----3-----------------------------------------3-----3-----------------3-----3-----------------|
E-------------------------3-----3-----------------------------------------------------------------|
  curse you            my vampire                 heart                             For 
me

  C                       G                       F
E-------------------------------------------------------------------------------------------------|
B-------------1-----1-----------------3-----3-----------------1-----1-----------------1-----1-----|
G---0-----0-----0-----0-----0-----0-----0-----0-----2-----2-----2-----2-----2-----2-----2-----2---|
D-----2-----2-----2-----2-----0-----0-----0-----0-----3-----3-----3-----3-----3-----3-----3-----3-|
A-3-----3-----------------------------------------3-----3-----------------3-----3-----------------|
E-------------------------3-----3-----------------------------------------------------------------|
  love you                                        love you                          For 
me

  C                       G                       Am
E----------------------------------------------------|
B-------------1-----1-----------------3-----3------1-|
G---0-----0-----0-----0-----0-----0-----0-----0----2-|
D-----2-----2-----2-----2-----0-----0-----0-----0--2-|
A-3-----3------------------------------------------0-|
E-------------------------3-----3--------------------|
  love you                                From the start


Right, any banter (though please none of the botched coronary transplant kind) to
            
Tabs too difficult? Try these video lessons and learn fast.




comments powered by Disqus
↑ Back to top | Tablatures and chords are parodies/interpretations of the original songs. You may use it for private study, scholarship, research or language learning purposes only