» » »

It Ain't You Chords (ver.1)

Artists:  A B C D E F G H I J K L M N O P Q R S T U V W X Y Z # 

It Ain't You Chords (ver.1)

Tom Mcrae
Rating:
0/5 (0 votes)

Tabs too difficult? Try these video lessons and learn fast.
                
By Tom McRae

*****CAPO 3*****

*****DADGBE TUNING*****

E--------------------------------------------------|
B--------------------------------------------------|
G--h------------------------h----------------------|
D-2-4---4-----4-----4------2-4---4-----4-----4-----|
A---------0-----0-----0------------0-----0-----0---|
D-0---0-----0-----0-----0--0---0-----0-----0-----0-|

E-------------------------------------------------|
B--------------------------------------h----------|
G-7-------7---6-------0---2-------2---0-2---2-----|
D---0-------0---0-------0---0-------0---------0---|
A-----0-----------0-----------0-------------------|
D-0-----0-----0-----0-----0-----0---------0-----0-|

E--------------------------------------------------|
B--------------------------------------------------|
G--h------------------------h----------------------|
D-2-4---4-----4-----4------2-4---4-----4-----4-----|
A---------0-----0-----0------------0-----0-----0---|
D-0---0-----0-----0-----0--0---0-----0-----0-----0-|
        I'm walking on a wire
        Another car crash sunrise

E-------------------------------------------------|
B--------------------------------------h----------|
G-7-------7---6-------0---2-------2---0-2---2-----|
D---0-------0---0-------0---0-------0---------0---|
A-----0-----------0-----------0-------------------|
D-0-----0-----0-----0-----0-----0---------0-----0-|
         Twisting in the wind
         Is burning up my street

E--------------------------------------------------|
B--------------------------------------------------|
G--h------------------------h----------------------|
D-2-4---4-----4-----4------2-4---4-----4-----4-----|
A---------0-----0-----0------------0-----0-----0---|
D-0---0-----0-----0-----0--0---0-----0-----0-----0-|
        And something here is dying
        Above the call of sirens

E-------------------------------------------------------------------------|
B--------------------------------------p----------------------------------|
G-7-------7---6-------0---2-------2---2-0---------2-------2---2-0---------|
D---0-------0---0-------0---0-------0-------4-0-----0-------0-------4-0---|
A-----0-----------0-----------0-----------------0-----0-----------------0-|
D-0-----0-----0-----0-----0-----0-----0---0-------0-----0-----0---0-------|
        And I could use a friend
        Someone sings to me

E---------------------------------------------------------------|
B---------------------------------------------------------------|
G---------0---------------0---------------2---------------2-----|
D---0-------0---0---0-------0---0---0-------0---0---0-------0---|
A-----2---------------2---------------0---------------0---------|
D-0-----0-----0---0-----0-----0---0-----0-----0---0-----0-----0-|
                              But it ain't you

E-----------------------------------------------------------------|
B-----------------------------------------------------------------|
G-----------0-------------0---------------2---------------2-------|
D--h----0-------0---0-------0---0---0-------0---0---0-------0---0-|
A-0-2-----------------2---------------0---------------0-----------|
D-----0---0---0---0-----0-----0---0-----0-----0---0-----0-----0---|
                                              It ain't you

E---------------------------------------------------------------|
B---------------------------------------------------------------|
G---------2---------------2---------------2---------------2-----|
D---0-------0---0---0-------0---0---0-------0---0---0-------0---|
A-----0---------------0---------------0---------------0---------|
D-0-----0-----0---0-----0-----0---0-----0-----0---0-----0-----0-|

INSTRUMENTAL

(Remember you've got a Capo on the 3rd so the 14th fret is written as the 11th
and so on...)
E= 11th Fret
T= 12th Fret
F= 14th Fret
S= 16th Fret

E-----------------------------------------------------|
B--h-------------------------h------------------------|
G-9-E-------E---E-------E---9-E-------E---E-------E---|
D-----0-------0---0-------0-----0-------0---0-------0-|
A-------0-----------0-------------0-----------0-------|
D-0-------0-----0-----0-----0-------0-----0-----0-----|

E-------------------------------------------------|
B-------------------------------------------------|
G-T-------T---F-------S---E-------E---E-------E---|
D---0-------0---0-------0---0-------0---0-------0-|
A-----0-----------0-----------0-----------0-------|
D-0-----0-----0-----0-----0-----0-----0-----0-----|

E-----------------------------------------------|
B-----------------------------------------------|
G-T-------T---F-------S---E-------E---9---7-----|
D---0-------0---0-------0---0-------0---0---0---|
A-----0-----------0-----------0---------------0-|
D-0-----0-----0-----0-----0-----0-----0---------|

E-------------------------------------------------|
B-------------------------------------------------|
G-0-------0---0-------0---2-------2---2-------2---|
D---0-------0---0-------0---0-------0---0-------0-|
A-----2-----------2-----------0-----------0-------|
D-0-----0-----0-----0-----0-----0-----0-----0-----|

E---------------------------|
B---------------------------|
G-0-------0---0-------0---2-|
D---0-------0---0-------0---|
A-----2-----------2---------|
D-0-----0-----0-----0-----0-|

E--------------------------------------------------|
B--------------------------------------------------|
G--h------------------------h----------------------|
D-2-4---4-----4-----4------2-4---4-----4-----4-----|
A---------0-----0-----0------------0-----0-----0---|
D-0---0-----0-----0-----0--0---0-----0-----0-----0-|
        Tonight I'll walk on water

E-------------------------------------------------|
B--------------------------------------h----------|
G-7-------7---6-------0---2-------2---0-2---2-----|
D---0-------0---0-------0---0-------0---------0---|
A-----0-----------0-----------0-------------------|
D-0-----0-----0-----0-----0-----0---------0-----0-|
         Tonight I'll leap through flame

E--------------------------------------------------|
B--------------------------------------------------|
G--h------------------------h----------------------|
D-2-4---4-----4-----4------2-4---4-----4-----4-----|
A---------0-----0-----0------------0-----0-----0---|
D-0---0-----0-----0-----0--0---0-----0-----0-----0-|
         And sing it to the corner

E-------------------------------------------------|
B--------------------------------------h----------|
G-7-------7---6-------0---2-------2---0-2---2-----|
D---0-------0---0-------0---0-------0---------0---|
A-----0-----------0-----------0-------------------|
D-0-----0-----0-----0-----0-----0---------0-----0-|
        And still the blood in your veins

E--------------------------------------------------|
B--------------------------------------------------|
G--h------------------------h----------------------|
D-2-4---4-----4-----4------2-4---4-----4-----4-----|
A---------0-----0-----0------------0-----0-----0---|
D-0---0-----0-----0-----0--0---0-----0-----0-----0-|
         Till something flickers in me

E-------------------------------------------------|
B--------------------------------------h----------|
G-7-------7---6-------0---2-------2---0-2---2-----|
D---0-------0---0-------0---0-------0---------0---|
A-----0-----------0-----------0-------------------|
D-0-----0-----0-----0-----0-----0---------0-----0-|
        I feel a motion of light

E--------------------------------------------------|
B--------------------------------------------------|
G--h------------------------h----------------------|
D-2-4---4-----4-----4------2-4---4-----4-----4-----|
A---------0-----0-----0------------0-----0-----0---|
D-0---0-----0-----0-----0--0---0-----0-----0-----0-|
         And slip into the distance

E---------------------------|
B---------------------------|
G-7-------7---6-------0---2-|
D---0-------0---0-------0---|
A-----0-----------0---------|
D-0-----0-----0-----0-----0-|
        And someone slips into my life

E---------------------------------------------------------------|
B---------------------------------------------------------------|
G---------0---------------0---------------2---------------2-----|
D---0-------0---0---0-------0---0---0-------0---0---0-------0---|
A-----2---------------2---------------0---------------0---------|
D-0-----0-----0---0-----0-----0---0-----0-----0---0-----0-----0-|
                              But it ain't you

E-----------------------------------------------------------------|
B-----------------------------------------------------------------|
G-----------0-------------0---------------2---------------2-------|
D--h----0-------0---0-------0---0---0-------0---0---0-------0---0-|
A-0-2-----------------2---------------0---------------0-----------|
D-----0---0---0---0-----0-----0---0-----0-----0---0-----0-----0---|
                                              It ain't you

E---------------------------------------------------------------|
B---------------------------------------------------------------|
G---------0---------------0---------------2---------------2-----|
D---0-------0---0---0-------0---0---0-------0---0---0-------0---|
A-----2---------------2---------------0---------------0---------|
D-0-----0-----0---0-----0-----0---0-----0-----0---0-----0-----0-|
                              But it ain't you

E-----------------------------------|
B-----------------------------------|
G-----------0-------------0---------|
D--h----0-------0---0-------0---0---|
A-0-2-----------------2-------------|
D-----0---0---0---0-----0-----0---0-|
                         It ain't you

If anyone wants to buy me a pint for that, or send any banter (but none of the
            
Tabs too difficult? Try these video lessons and learn fast.




comments powered by Disqus
↑ Back to top | Tablatures and chords are parodies/interpretations of the original songs. You may use it for private study, scholarship, research or language learning purposes only