» » »

Human Remains Tabs (ver.1)

Artists:  A B C D E F G H I J K L M N O P Q R S T U V W X Y Z # 

Human Remains Tabs (ver.1)

Tom Mcrae
Rating:
2/5 (1 vote)

Hard to play? Try these video lessons and learn fast.
                
Intro (x2):

|------------------2-----2-----------------2-----2------|
|--------------3-----3-----3----------3------3-----3----|
|-----------2---------------------2---------------------|
|--------0----0--0-----0-----0-4----4---4------4-----4--|
|-------------------------------------------------------|
|-------------------------------------------------------|

|-------------------0------0---------------2-----2------|                                      
|---------------2-----2------2---------2-----2-----2----|
|-----------0------------------0---0-----------------0--|
|-------------------------------------------------------|
|-------------------------------------------------------|
|--------3----3---3------3-------3---3---3-----3--------|

Verse 1 (w/ intro x2):

The picture is burned
at the edge
And you're looking away
looking for what's next
  

Bridge (x3):

|----------0-----0-----0-----0-----0-----0-----0-----0--|
|------------0-----0-----0-----0-----0-----0-----0-----0|
|-------------------------------------------------------|
|--------2-----2-----2-----2-----4-----4-----4-----4----|
|-------------------------------------------------------|
|-------------------------------------------------------|
     and strange    how  through time        we look the
         same      your eyes and mine            looking
         away      too scared to see           human re- 

Bridge end:

|-------------------0------0---------------2-----2------|                                      
|---------------2-----2------2---------2-----2-----2----|
|-----------0------------------0---0-----------------0--|
|-------------------------------------------------------|
|-------------------------------------------------------|
|--------3----3---3------3-------3---3---3-----3--------|

        -mains



Chorus:

|------------------2-----2-----------------2-----2------|
|--------------3-----3-----3----------3------3-----3----|
|-----------2---------------------2---------------------|
|--------0----0--0-----0-----0-4----4---4------4-----4--|
|-------------------------------------------------------|
|-------------------------------------------------------|

     and soon enough           soon enough      this will
     
|-------------------0------0---------------2-----2------|                                      
|---------------2-----2------2---------2-----2-----2----|
|-----------0------------------0---0-----------------0--|
|-------------------------------------------------------|
|-------------------------------------------------------|
|--------3----3---3------3-------3---3---3-----3--------|
  
         all        be         a memory 

Chorus end:

|------------------2-----2-----------------2-----2------|
|--------------3-----3-----3----------3------3-----3----|
|-----------2---------------------2---------------------|
|--------0----0--0-----0-----0-4----4---4------4-----4--|
|-------------------------------------------------------|
|-------------------------------------------------------|

     and soon enough           soon enough      this will

|-------------------2-----2----------------0------------|
|---------------2-----2-----2----------2----------------|
|-----------0-----------------0----0--------------------|
|-------------------------------------------------------|
|-------------------------------------------------------|
|--------3----3---3-----3-------3----3---3--------------|

         fade       like     the photo -   graph

|------------------2-----2-----------------2-----2------|
|--------------3-----3-----3----------3------3-----3----|
|-----------2---------------------2---------------------|
|--------0----0--0-----0-----0-4----4---4------4-----4--|
|-------------------------------------------------------|
|-------------------------------------------------------|

      of you and me


|-------------------0------0---------------2-----2------|                                      
|---------------2-----2------2---------2-----2-----2----|
|-----------0------------------0---0-----------------0--|
|-------------------------------------------------------|
|-------------------------------------------------------|
|--------3----3---3------3-------3---3---3-----3--------|


Verse 2 (intro x2):

Our history is just
in our blood
And history like love
is never enough

Bridge 2(brigde x3 + bridge end): 

And I recognize
so much of you
in these eyes
always so blue
why always so blue

Chorus 2(chorus x5, chorus end):

And soon enough, soon enough
this will all be a memory
and soon enough, soon enough
this will fade like the photograph

Those things that I lost, those things that I saw
This gate is now closed, the trail has gone cold
And your sticks are all snakes, I throw them aside
They twist 'till they break, but they never die

This is not enough, this is not enough
This is not enough, this is not enough for me
It's not enough, this is not enough
This is not enough for any of us to be

Outro (intro x2, strum D to end)

The picture is burned
at the edge
And you're looking away
looking for what's next
Tell me what's next 
            
Hard to play? Try these video lessons and learn fast. | Correct




comments powered by Disqus
↑ Back to top | Tablatures and chords are parodies/interpretations of the original songs. You may use it for private study, scholarship, research or language learning purposes only