» » »

Tom Mcrae, Got A Suitcase, Got Regrets Tabs (ver.1)

Artists:  A B C D E F G H I J K L M N O P Q R S T U V W X Y Z # 

Got A Suitcase, Got Regrets Tabs (ver.1)

Tom Mcrae Tabs
 Rating:
4/5 (4 votes)
Got A Suitcase, Got Regrets lessons Tabs too difficult? Try these video lessons and learn fast
                
Capo 1st fret. Everything relative to capo.

Chords used:

G: 320033
G/F#: 200033
Cadd9: X32033

Intro and verse (Just play the top part for the intro):

e|----------------------------------------|
B|----------------------------------------|
G|-----0----------0------0----------0-----| x 2
D|-----9--9---9---9------9--9---9---9-----|
A|---7------7---7---7--6------6---6---6---|
E|----------------------------------------|

e|-----------------------------------------------------------------------|
B|-----------------------------------------------------------------------|
G|-----0----------0-----0----------0-----0----------0-----0----------0---| 
D|-----7--7---7---7-----7--7---7---7-----9--9---9---9-----9--9---9---9---| x1
A|---5------5---5---5-5------5---5---5-7------7---7---6-7------7---7---7-|
E|-----------------------------------------------------------------------|

Change the locks on the door
Put out the light in the hall
I do not live here anymore

Put the world in a box
Turn the sign to the street
Aim for where the horizon and blue skies meet

Chorus:

                    G
But all I know is

G/F#          Cadd9                  G
I'm not ready yet, for the light to dim

      G/F#          Cadd9
Go a suitcase, got regrets


But I'm hopeful yet


I've been a gifted thief
Stole everything for the cause
I never had fingers as light as yours

So wake up pretty girl
See the hope in small things
Disappointment can where you thin

*Chorus*

For the extended chorus part at the end, just keep playing the chords G G/F# and Cadd9 through it.

But all I know is
I'm not ready yet, for the light to dim
Go a suitcase, got regrets
But I'm hopeful yet
And I'll raise this glass of wine
And I'll say your name

So lets be killers babe
Make the great escape
Its Christmas day, Brooklyn in the rain
But I am safe inside a better world of hope and memory
Drunk on velvet wine, southern cross for light
Deal your cards and hope that I can play a better hand this time



Thats it, comments/corrections welcome.
            
Submit corrections

comments powered by Disqus
↑ Back to top | Tom Mcrae Tabs for Got A Suitcase, Got Regrets. Lyrics for acoustic guitar and electric guitar. Tablatures and chords are parodies/interpretations of the original songs. You may use it for private study, scholarship, research or language learning purposes only