» » »

Border Song Tabs (ver.1)

Artists:  A B C D E F G H I J K L M N O P Q R S T U V W X Y Z # 

Border Song Tabs (ver.1)

Tom Mcrae
Rating:
5/5 (1 vote)

Hard to play? Try these video lessons and learn fast.
                Border Song (Album Version)

By Tom McRae

*****CAPO 1*****

Chords

B7- x21202
E- 022100
Asus2- x02200


INTRO:

  B7                               E
E-------------2--------------2---------------0--------------0-
B---0-----0--------0-----0-----0---0-----0--------0-----0-----
G-----2--------------2---------------1--------------1---------
D-------------------------------------------------------------
A-2-----2---2----2-----2---2----------------------------------
E--------------------------------0-----0---0----0-----0---0---

  B7                               E
                              p
E---------0---2--------------2-0---------------0--------------0-
B---0--------------0-----0-------0---0-----0--------0-----0-----
G-----2--------------2-----------------1--------------1---------
D---------------------------------------------------------------
A-2-----2---2----2-----2---2------------------------------------
E----------------------------------0-----0---0----0-----0---0---
                                                                She lies

VERSE:


  B7                               E
                              p
E-------------2--------------2-0---------------0--------------0-
B---0-----0--------0-----0-------0---0-----0--------0-----0-----
G-----2--------------2-----------------1--------------1---------
D---------------------------------------------------------------
A-2-----2---2----2-----2---2------------------------------------
E----------------------------------0-----0---0----0-----0---0---
  still                her eyes on fire                Undressed to

  B7                               E
                              p
E-------------2--------------2-0---------------0--------------0-
B---0-----0--------0-----0-------0---0-----0--------0-----0-----
G-----2--------------2-----------------1--------------1---------
D---------------------------------------------------------------
A-2-----2---2----2-----2---2------------------------------------
E----------------------------------0-----0---0----0-----0---0---
kill              and untethered in time                    And in the

  Asus2                            E
E-------------0---------------0----------------0---------------0---
B---0-----0-----0---0-----0------0---0-----0-----0---0-----0-----0-
G-----2---------------2----------------1---------------1-----------
D------------------------------------------------------------------
A-0-----0---0-----0-----0---0--------------------------------------
E----------------------------------0-----0---0-----0-----0---0-----
  arms                        of a stranger                        You

  Asus2                            E
E-------------0---------------0----------------0---------------0---
B---0-----0-----0---0-----0------0---0-----0-----0---0-----0-----0-
G-----2---------------2----------------1---------------1-----------
D------------------------------------------------------------------
A-0-----0---0-----0-----0---0--------------------------------------
E----------------------------------0-----0---0-----0-----0---0-----
  search          for someone like her                            And the

  B7
                                                             p
E-------------2--------------2---------------2--------------2-0---0-0-
B---0-----0--------0-----0-----0---0-----0--------0-----0-------0-0-0-
G-----2--------------2---------------2--------------2-------------1-1-
D-----------------------------------------------------------------2-2-
A-2-----2---2----2-----2---2-----2-----2---2----2-----2---2-------2-2-
E-----------------------------------------------------------------0-0-
  music carries   on        in a simple Border Song     You once knew


And then, the rest of the song is strummed

E, B7, E then the rest of the song...

            B7                        E
People like you, they come and they go
               B7               E
What's left to say we already know?
          Asus2                 E
And we've danced these shoes to pieces
          Asus2                  E
And we've stood where no-one has stood
        B7
And the music carries on
                                  E
In a simple Border Song you once knew

      Asus2              E
And I guess I've seen it all
      Asus2              E
And I guess I've seen it all
        Asus2              E
You can climb but you will fall
      Asus2              E
And I guess I've seen it all


And then just repeat Asus2 E till the end of the song
wailing and repeating the guess I've seen it all bit

Not a lot different to the Warchild version then eh? Just Capoed up. Any comments
(although none of the former Australian cricketer kind...) to
            
Hard to play? Try these video lessons and learn fast. | Correct




comments powered by Disqus
↑ Back to top | Tablatures and chords are parodies/interpretations of the original songs. You may use it for private study, scholarship, research or language learning purposes only