» » »

Feel Your Balls Tabs (ver.1)

Artists:  A B C D E F G H I J K L M N O P Q R S T U V W X Y Z # 

Feel Your Balls Tabs (ver.1)

Tom Green
Rating:
0/5 (0 votes)

Hard to play? Try these video lessons and learn fast.
                -------------------------------------------------------------------------------
-------------------------------------------------------------------------------

Tuning:standard

e|-----0----0-------------3----3--------------2----2------------3---3------------------|
B|-----1----1-------------3----3--------------3----3------------3---3------------------|
G|-----0----0-------------0----0--------------2----2------------0---0------------------|
D|-----2----2-------------0----0--------------0----0------------0---0------------------|
A|-----3----3-------------2----2--------------------------------2---2------------------|
E|----------------3-------3----3-------2----------------2-------3---3------------------|

(repeat for however this song lasts)
            
Hard to play? Try these video lessons and learn fast. | Correct




comments powered by Disqus
↑ Back to top | Tablatures and chords are parodies/interpretations of the original songs. You may use it for private study, scholarship, research or language learning purposes only