» » »

Tokyo Police Club, Your English Is Good Bass tabs (ver.1)

Artists:  A B C D E F G H I J K L M N O P Q R S T U V W X Y Z # 

Your English Is Good Bass tabs (ver.1)

Tokyo Police Club Tabs
Rating:
0/5 (0 votes)
Your English Is Good lessons Tabs too difficult? Try these video lessons and learn fast
                Start @ 0:16
G|--------------|
D|--12~---------|
A|-----12~------|
E|--------------|

G|-------------------------------------------|
D|-------------------------------------------|
A|-10(16X)-9-9-9----------------12(8X)-------| 5X
E|---------------12-10-10-10-10--------------|

G|-------------------------------------------|
D|-------------------------------------------|
A|-10(16X)-9-9-9----------------0(8X)--------|
E|---------------12-10-10-10-10--------------|

G|-------------------------------------------|
D|-------------------------------------------|
A|-----------12~-9~-10~----12~-12-12-12-12---|
E|--2~-3~/10~-----------10~------------------|

G|-------------------------------------------|
D|-------------------------------------------|
A|-10(16X)-9-9-9----------------12(8X)-------|
E|---------------12-10-10-10-10--------------|

G|-------------------------------------------|
D|-------------------------------------------| 3X
A|-10(16X)-9-9-9----------------12(8X)-------|
E|---------------12-10-10-10-10--------------|

G|-------------------------------------------|
D|-------------------------------------------|
A|-10(16X)-9-9-9----------------0(8X)--------|
E|---------------12-10-10-10-10--------------|

G|-------------------------------------------|
D|-------------------------------------------|
A|-10(16X)-9-9-9----------------12(8X)-------|
E|---------------12-10-10-10-10--------------|

G|-------------------------------------------|
D|-------------------------------------------|
A|-10(16X)-9-9-9----------------0(8X)--------|
E|---------------12-10-10-10-10--------------|


G|-------------------------------------------|
D|-----------7~------------------------------|
A|--------5~-----9~-10~----12~-12-12-12-12---|
E|--2~-3~--------------10~-------------------|

G|-------------------------------------------|
D|-------------------------------------------|
A|-10(16X)-9-9-9----------------12(8X)-------| 4X
E|---------------12-10-10-10-10--------------|

------------
Please Rate!
            

comments powered by Disqus
↑ Back to top | Tokyo Police Club Bass for Your English Is Good. Lyrics for acoustic guitar and electric guitar. Tablatures and chords are parodies/interpretations of the original songs. You may use it for private study, scholarship, research or language learning purposes only