» » »

Tokyo Police Club, Nursery Academy Bass tabs (ver.1)

Artists:  A B C D E F G H I J K L M N O P Q R S T U V W X Y Z # 

Nursery Academy Bass tabs (ver.1)

Tokyo Police Club Tabs
 Rating:
4/5 (4 votes)
Nursery Academy lessons Tabs too difficult? Try these video lessons and learn fast
                Intro:

Come in at 0:14
G---------------------|
D--5~----2~-----------|  x2
A-------------5~------|
E---------------------|


Main Riff:

Start at 0:26
G---------------------------|
D-------------222-----------|x8 
A---3-3--2-2------55-2-33---|
E---------------------------|

Start at 0:50
G------------------------------------------------------------|
D----55555555-22222222---------------------------------------| x2
A----------------------5555555555555555----------------------|
E------------------------------------------------------------|

G------------------------------------------------------------|
D----55555555-22222222---------------------------------------| 
A----------------------55555555-222-223----------------------|
E------------------------------------------------------------|


Start at 1:29

G----------------------------|
D-5~--2~---------------------|
A---------5~----5-5-222------|
E----------------------------|

G----------7~----------------|
D-5~--9~---------------------|
A----------------------------|
E----------------------------|

Repeat main riff...
G---------------------------|
D-------------222-----------|x4
A---3-3--2-2------55-2-33---|
E---------------------------|

G---------------------------|
D---------------------------|x4
A--777-7777---555-5555------|
E---------------------------|

G-----------------------------------|
D-----------------------------------|x2  (Tenth fret not 1,0,1...)
A--777-7777---101010-10101010-------|
E-----------------------------------|

G---------------------------|
D---------------------------|x2
A--777-7777---555-5555------|
E---------------------------|


My first tab so if you have questions shoot me an email!
            
Submit corrections

comments powered by Disqus
↑ Back to top | Tokyo Police Club Bass for Nursery Academy. Lyrics for acoustic guitar and electric guitar. Tablatures and chords are parodies/interpretations of the original songs. You may use it for private study, scholarship, research or language learning purposes only