» » »

Listen To The Math Bass tabs (ver.1)

Artists:  A B C D E F G H I J K L M N O P Q R S T U V W X Y Z # 

Listen To The Math Bass tabs (ver.1)

Tokyo Police Club
Rating:
5/5 (1 vote)

Tabs too difficult? Try these video lessons and learn fast.
                Start @ 0:20
G|---------------|--------------|---------------|----------------|
D|-777-7-7-------|--------------|---------------|-999-9-9-9-9-9--|
A|---------9-9-9-|-777-7-7------|---------------|----------------|
E|---------------|---------9-9~-|-777-7-7-7-7-7-|----------------|

G|---------------|--------------|---------------|----------------|
D|-777-7-7-------|--------------|---------------|----------------|
A|---------9-9-9-|-777-7-7------|---------------|----------------|
E|---------------|---------9-9~-|-777-7-7-7-7-7—|-22\7-7-7-7-7-7-|

G|---------------|--------------|---------------|----------------|
D|---------------|--------------|---------------|----------------|
A|---------------|--------------|---------------|----------------| 2X
E|-555-5-5-5-5-5-|-555-5-5-5-5~-|-444-4-4-4-4-4-|-777-7-7-7-7-7--|

G|---------------------|
D|---------------------|
A|-7(8X)---------------| 2X
E|-------4(8X)-7(16X)--|

G|---------------|--------------|---------------|----------------|
D|-777-7-7-------|--------------|---------------|----------------|
A|---------9-9-9-|-777-7-7------|---------------|----------------|
E|---------------|---------9-9~-|-777-7-7-7-7-7-|-777-7-7-7-7-7--|

G|---------------|--------------|---------------|----------------|
D|---------------|--------------|---------------|----------------|
A|---------------|--------------|---------------|----------------| 2X
E|-555-5-5-5-5-5-|-555-5-5-5-5~-|-444-4-4-4-4-4-|-777-7-7-7-7-7--|

G|---------------------|
D|---------------------|
A|-7(8X)---------------| 2X
E|-------4(8X)-7(16X)--|

G|-222-2-2-------|--------------|---------------|----------------|
D|---------------|--------------|---------------|----------------|
A|---------------|-777-7-7------|---------------|------------69--|
E|---------2-2-2-|---------9-9~-|-777-7-7-7-7-7-|-7777777-79-----|

G|---------------|--------------|---------------|----------------|
D|-777-7-7-------|--------------|---------------|----------------|
A|---------9-9-9-|-777-7-7------|---------------|----------------|
E|---------------|---------9-9~-|-7-7-7-7-7-7-7—|-22\7-7-7-7-7-7-|

G|---------------|
D|---------------|
A|--------7~~----|
E|--7~~----------|
            
Tabs too difficult? Try these video lessons and learn fast.


comments powered by Disqus
↑ Back to top | Tablatures and chords are parodies/interpretations of the original songs. You may use it for private study, scholarship, research or language learning purposes only