» » »

Tokyo Police Club, La Ferrassie Tabs (ver.3)

Artists:  A B C D E F G H I J K L M N O P Q R S T U V W X Y Z # 

La Ferrassie Tabs (ver.3)

Tokyo Police Club Tabs
 Rating:
4/5 (4 votes)
La Ferrassie lessons Tabs too difficult? Try these video lessons and learn fast
                -------------------------------------------------------------------------------
                           La Ferrassie - Tokyo Police Club
-------------------------------------------------------------------------------

Had a look at the other tabs for this song and wasm't sure they were quite
right so thought I'd share how i play it.  Hope it sound right to everyone.




Tuning: Standard



Keyboard Intro - (>) = hold note on and let ring

e|----7>---------------------------------------------------------------------|
B|-------------8>------------------------------------------------------------|
G|-------9>------------------------------------------------------------------|
D|---------------------------------------------------------------------------|
A|---------------------------------------------------------------------------|
E|---------------------------------------------------------------------------|


Verse

e|--3-3>-----2-2>------------------------------------------------------------|
B|--5-5>-----3-3>------------------------------------------------------------|
G|--4-4>-----2-2>------------------------------------------------------------|
D|--5-5>-----4-4>------------------------------------------------------------|
A|--3-3>-----2-2>------------------------------------------------------------|
E|---------------------------------------------------------------------------|



Breakdown bit - Starts at the "you know i am", Strike a G on the "am"

W/ Distortion On

     G

e|---3>----------------------------------------------------------------------|
B|---3>----------------------------------------------------------------------|
G|---4>----------------------------------------------------------------------|
D|---5>----------------------------------------------------------------------|
A|---5>----------------------------------------------------------------------|
E|---3>----------------------------------------------------------------------|


    G                   Bm        C
        
e|--3-3-3-3-3-333---5---7-7-7-7---8--8--8--8--8------------------------------|
B|--3-3-3-3-3-333---5---7-7-7-7---8--8--8--8--8------------------------------|
G|--4-4-4-4-4-444---5---7-7-7-7---9--9--9--9--9---9/12--9--------------------|
D|--5-5-5-5-5-555---5---9-9-9-9---10-10-10-10-10-----------------------------|
A|--5-5-5-5-5-555---7---9-9-9-9---10-10-10-10-10-----------------------------|
E|--3-3-3-3-3-333---5---7-7-7-7---8--8--8--8--8------------------------------|


End - Tremelo Picked

e|--15\14/17/19--------------------------------------------------------------|
B|---------------------------------------------------------------------------|
G|---------------------------------------------------------------------------|
D|---------------------------------------------------------------------------|
A|---------------------------------------------------------------------------|
E|---------------------------------------------------------------------------|


(They use a range of effects throughout the song which i haven't mentioned.)


************************************

| /   slide up
| \   slide down
| h   hammer-on
| p   pull-off
| ~   vibrato
| +   harmonic
| x   Mute note
| b   Bend
| pb  Pre-bend
| br  Bend release
| pbr Pre-bend release
| brb Bend release bend
| >   Hold note and let ring

************************************
            
Submit corrections

comments powered by Disqus
↑ Back to top | Tokyo Police Club Tabs for La Ferrassie. Lyrics for acoustic guitar and electric guitar. Tablatures and chords are parodies/interpretations of the original songs. You may use it for private study, scholarship, research or language learning purposes only