» » »

Tokyo Police Club, La Ferrassie Tabs (ver.2)

Artists:  A B C D E F G H I J K L M N O P Q R S T U V W X Y Z # 

La Ferrassie Tabs (ver.2)

Tokyo Police Club Tabs
Rating:
0/5 (0 votes)
La Ferrassie lessons Tabs too difficult? Try these video lessons and learn fast
                -------------------------------------------------------------------------------
                             LA FERRASSIE - Tokyo Police Club
-------------------------------------------------------------------------------


Decided to tab this because the others were wrong.
This version sounds great against the recording and playing
this verbatim will be fine for home and band use.
Be sure to listen to the song to find correct ryhthms
and how many times to repeat each section.

Tuning: Standard

  INTRO (played on keyboard but still sounds good, let notes ring)
e|----7~-------3~------------------------------------------------------------|
B|--------5~-----------------------------------------------------------------|
G|---------------------------------------------------------------------------|
D|---------------------------------------------------------------------------|
A|---------------------------------------------------------------------------|
E|---------------------------------------------------------------------------|


  VERSE (using some sort of delay and other effects, let chords ring)
 The chords go back and forth between these two, listen to the song to figure out the 
of times.
"Don't forget..."
e|--3~------2~---------------------------------------------------------------|
B|--0~------0~---------------------------------------------------------------|
G|--0~------0~---------------------------------------------------------------|
D|--2~------0~---------------------------------------------------------------|
A|--3~------2~---------------------------------------------------------------|
E|---------------------------------------------------------------------------|


OUTRO (begins with this chord, im just tabbing the power chord, but have included actual 
for those who prefer them)

 "...you know i AM" (hit the chord on the 'AM')
  Gmaj
e|---------------------------------------------------------------------------|
B|---------------------------------------------------------------------------|
G|---------------------------------------------------------------------------|
D|--5~-----------------------------------------------------------------------|
A|--5~-----------------------------------------------------------------------|
E|--3~-----------------------------------------------------------------------|


(then moves to this chord progression)
    Gmaj              Bmin      Cmaj
e|---------------------------------------------------------------------------|
B|---------------------------------------------------------------------------|
G|--------------------44444444--55555555-------------------------------------|
D|--5555555555555555--44444444--55555555-------------------------------------|
A|--5555555555555555--22222222--33333333-------------------------------------|
E|--3333333333333333---------------------------------------------------------|


then changes to this (tremolo/really fast picking, delay effect)
e|---15>------14>--17>--19>--------------------------------------------------|
B|---------------------------------------------------------------------------|
G|---------------------------------------------------------------------------|
D|---------------------------------------------------------------------------|
A|---------------------------------------------------------------------------|
E|---------------------------------------------------------------------------|


keyboard outro part (fun to play)
e|---------------------------------------------------------------------------|
B|--------------------5--7---------------------------------------------------|
G|--7--5--4-----4-----------7--5--4-----4------------------------------------|
D|-----------7-----7-----------------7-----7--5------------------------------|
A|---------------------------------------------------------------------------|
E|---------------------------------------------------------------------------|

aaand thats it. great song from a great band. please rate as this is my first tab, or 
me with corrections


| >  tremolo/very fast picking
| ~  let ring
| /  slide up
| \  slide down
| h  hammer-on
| p  pull-off
| ~  vibrato
| +  harmonic
| x  Mute note
===============================================================================
            

comments powered by Disqus
↑ Back to top | Tokyo Police Club Tabs for La Ferrassie. Lyrics for acoustic guitar and electric guitar. Tablatures and chords are parodies/interpretations of the original songs. You may use it for private study, scholarship, research or language learning purposes only