» » »

Juno Bass tabs (ver.1)

Artists:  A B C D E F G H I J K L M N O P Q R S T U V W X Y Z # 

Juno Bass tabs (ver.1)

Tokyo Police Club
Rating:
5/5 (2 votes)

Hard to play? Try these video lessons and learn fast.
                Start @0:06
G|--------------------------|--------------------------|
D|--------------------------|--------------------8(8X)-|
A|--9(8X)-8(8X)-6(8X)-8(8X)-|--9(8X)-8(8X)-------------| 2X
E|--------------------------|--------------9(8X)-------|

G|-------------|
D|-------------|
A|--9~-6~------| 3X
E|--------7~---|

-Rest-

G|--------------------------|--------------------------|
D|--------------------------|--------------------8(8X)-|
A|--9(8X)-8(8X)-6(8X)-8(8X)-|--9(8X)-8(8X)-------------|
E|--------------------------|--------------9(8X)-------|

-Rest-

G|-------------|
D|-------------|
A|--9~-6~------| 4X
E|--------7~---|

Simple song. The bass doesn't actually play:
G|-------------|
D|-------------|
A|--9~-6~------|
E|--------7~---|

but it is better than not playing at all.
Jordy R.
            
Hard to play? Try these video lessons and learn fast. | Correct




comments powered by Disqus
↑ Back to top | Tablatures and chords are parodies/interpretations of the original songs. You may use it for private study, scholarship, research or language learning purposes only