» » »

Tokyo Police Club, If It Works Tabs (ver.1)

Artists:  A B C D E F G H I J K L M N O P Q R S T U V W X Y Z # 

If It Works Tabs (ver.1)

Tokyo Police Club Tabs
 Rating:
4.3/5 (6 votes)
If It Works lessons Tabs too difficult? Try these video lessons and learn fast
1
                -------------------------------------------------------------------------------
                                 A Lesson In Crime EP
-------------------------------------------------------------------------------

Tuning:EADGBe

INTRO [RIFF 1]
e|-77-----77-----1010-----1010-----1212-----1010-----77----------8------8---|
B|---88-5---88-5-----88-5-----88-5-----88-5-----88-5---88-5-55-88--55-88----|
G|--------------------------------------------------------------------------|
D|--------------------------------------------------------------------------|
A|--------------------------------------------------------------------------|
E|--------------------------------------------------------------------------|

e|------8-------------------------------------------------------------------|
B|-55-88--55-88-10\---------------------------------------------------------|
G|--------------------------------------------------------------------------|
D|--------------------------------------------------------------------------|
A|--------------------------------------------------------------------------|
E|--------------------------------------------------------------------------|

RIFF 1 AGAIN

THEN [RIFF 2]
e|--------------------------------------------------------------------------|
B|--------------------------------------------------------------------------|
G|-5-55-555-5-55-555-5-55-555-5-55-555-5-55-555-5-55-555-5-55-555-5-55-555/-|
D|--------------------------------------------------------------------------|
A|--------------------------------------------------------------------------|
E|--------------------------------------------------------------------------|

e|----------10-7-7----------10-7-7----------10-7-7--7-7-7-7-----------------|
B|--------------8---------------8---------------8---------------------------|
D|-99-1212-9-------99-1212-9-------99-1212-9-------9-9-9-9------------------|
A|--------------------------------------------------------------------------|
E|--------------------------------------------------------------------------|

THEN [RIFF 3]
e|-1212-12-1212-12-1212-12-----------------------1515-15-1515-15-1515-15----|
B|-1212-12-1212-12-1212-12-----------------------1515-15-1515-15-1515-15----|
G|-1212-12-1212-12-1212-12-12h14-1414-14/16-16---1212-12-1212-12-1212-12----|
D|--------------------------------------------------------------------------|
A|--------------------------------------------------------------------------|
E|--------------------------------------------------------------------------|

e|-1515151515---------------------------------------------------------------|
B|-1515151515---------------------------------------------------------------|
G|-1212121212---------------------------------------------------------------|
D|--------------------------------------------------------------------------|
A|--------------------------------------------------------------------------|
E|--------------------------------------------------------------------------|

RIFF 3 AGAIN

THEN RIFF 2 [OUTRO]

please rate and/or comment
enjoy, thanks (:

| /  slide up
| \  slide down
| h  hammer-on
| p  pull-off
| ~  vibrato
| +  harmonic
| x  Mute note
===============================================================================
            
Submit corrections

comments powered by Disqus
↑ Back to top | Tokyo Police Club Tabs for If It Works. Lyrics for acoustic guitar and electric guitar. 1 Tablatures and chords are parodies/interpretations of the original songs. You may use it for private study, scholarship, research or language learning purposes only