» » »

Tokyo Police Club, Hands Reversed Tabs (ver.2)

Artists:  A B C D E F G H I J K L M N O P Q R S T U V W X Y Z # 

Hands Reversed Tabs (ver.2)

Tokyo Police Club Tabs
Rating:
5/5 (1 vote)
Hard to play? Try these video lessons and learn fast.
                So here is "Hands Reversed" off of Tokyo Police Club's new album Champ. Awesome 

VERSE:
e-----------------------------------------------------------------------|
B--3----3-----3---3------7---7------7---7------5---5------3---3---------|
G-----2-----2---2-----2----6-----6----6-----6----4-----4----4----4------|
D-----------------------------------------------------------------------|
A-----------------------------------------------------------------------|
E--2------2---2-----2----5-----5----5-----5----3-----3----3-----3-------|

--------------------------|
-7---7-------7---7--------|
---7-----7-----7-----7----| x3
--------------------------|
--------------------------|
-5-----5----*7----*5------|

*On the third time on the E string just play *7 and *5 alone in time.

PRE-CHORUS
e---------------------------------------------|
B--3---3------3---3-----7---7------7---7------|
G----2-----2----2----2----6-----6----6-----6--|
D---------------------------------------------|
A---------------------------------------------|
E--2-----2----2-----2---5-----5----5-----5----|

|----------------------------------------------|
|--5---5-----5---5------3---3------3---3-------|
|----6-----6---6-----6----4-----4----4-----4---| x3
|----------------------------------------------|
|----------------------------------------------|
|--5-----5---5-----5----3-----3----3-----3-----|

INTERLUDE
e------------------------------|
B--10----10--------------------|
G-----11--------7/9----9-------|
D--------------------9-----9---|
A------------------------------|
E--10-------10--5/7------7-----|

e--------------------------------------------------------------------|
B--3----3-----3---3------7---7------7---7------5---5------3---3------|
G-----2-----2---2-----2----6-----6----6-----6----4-----4----4----4---|
D--------------------------------------------------------------------|
A--------------------------------------------------------------------|
E--2------2---2-----2----5-----5----5-----5----3-----3----3-----3----|

-------------------|
-7---7-------7-----|
---7-----7---7-----|
-------------------|
-------------------|
-5-----5-----7-----|
            

comments powered by Disqus
↑ Back to top | Tokyo Police Club Tabs for Hands Reversed. Lyrics for acoustic guitar and electric guitar. Tablatures and chords are parodies/interpretations of the original songs. You may use it for private study, scholarship, research or language learning purposes only