» » »

Tokyo Police Club, Gone Tabs (ver.1)

Artists:  A B C D E F G H I J K L M N O P Q R S T U V W X Y Z # 

Gone Tabs (ver.1)

Tokyo Police Club Tabs
 Rating:
4.3/5 (6 votes)
Gone lessons Tabs too difficult? Try these video lessons and learn fast
                -------------------------------------------------------------------------------
-------------------------------------------------------------------------------

Tuning: standard EADGBe

taken from their second album, "CHAMP". i believe it's track 8. definitely one of the 
songs on the album.
i have a few other tokyo police club tabs, including some from the new album as well as 
old, so have a look at those too.

INTRO AND VERSES - RIFF I
ON THE LAST CHROD (A) LET IT RING BEFORE REPEATING RIFF. REFER TO SONG TO UNDERSTAND. 
AUTHENTIC EFFECT, USE SLIGHT REVERB.


   A#   F  C           F  C  Dm  A# Dm           A
e|-6666-11-8--8--8--8--11-88-10--66-10-10-10-10--5555------------------------|
B|-6666-11-8--8--8--8--11-88-10--66-10-10-10-10--5555------------------------|
G|-7777-22-9--9--9--9--22-99-10--77-10-10-10-10--6666------------------------|
D|-8888-33-10-10-10-10-33-10-12--88-12-12-12-12--7777------------------------|
A|-8888-33-10-10-10-10-33-10-12--88-12-12-12-12--7777------------------------|
E|-6666-11-8--8--8--8--11-8--10--66-10-10-10-10--5555------------------------|

CHORUS - RIFF II
" 'cause i don't know what i want"

this part's played on keyboard by graham, but i'll translate it to guitar for you all i 
;)
you can play these chords as octaves like i've tabbed, it sounds quite good, or you can 
them just as barre, or power chords.

e|---------------------------------------------------------------------------|
B|---------------------------------------------------------------------------|
G|-10-9-12-9-12-14-10-14-9-7--7-5-9-5-9-10-7-9-------------------------------|
D|---------------------------------------------------------------------------|
A|-8--7-10-7-10/12\8--12-7-5--5-3-7-3-7/8\-5/8-------------------------------|
E|---------------------------------------------------------------------------|

play this riff twice through, but on the last chord, josh comes back in with rapidly 
an A chord (refer to song to hear what i mean) and then he goes back into the riff.

OUTRO - RIFF II

************************************

| /   slide up
| \   slide down
| h   hammer-on
| p   pull-off
| ~   vibrato
| +   harmonic
| x   Mute note
| b   Bend
| pb  Pre-bend
| br  Bend release
| pbr Pre-bend release
| brb Bend release bend

************************************
            
Submit corrections

comments powered by Disqus
↑ Back to top | Tokyo Police Club Tabs for Gone. Lyrics for acoustic guitar and electric guitar. Tablatures and chords are parodies/interpretations of the original songs. You may use it for private study, scholarship, research or language learning purposes only