» » »

Tokyo Police Club, Centennial Bass tabs (ver.1)

Artists:  A B C D E F G H I J K L M N O P Q R S T U V W X Y Z # 

Centennial Bass tabs (ver.1)

Tokyo Police Club Tabs
 Rating:
4.3/5 (6 votes)
Centennial lessons Tabs too difficult? Try these video lessons and learn fast
                CENTENNIAL
By TOKYO POLICE CLUB

VERSE 1: (x2)
G|-------------------------------------|
D|-------------------------------9-999-|
A|------------5555-77-777-101010-------|
E|-55-555-7777-------------------------|

G|-----------------------------------------|
D|-------------------------------12-121212-|
A|------------5555-77-777-101010-----------|
E|-55-555-7777-----------------------------|

- Rest

- Verse 1 (x1)

VERSE 2: (x1)
G|-------------------------------------|
D|-------------------------------9-999-|
A|------------5555-77-777-101010-------|
E|-55-555-7777-------------------------|

G|---------------------------------------|
D|------------------------------------14-|
A|------------5555-77-777-101010-9-12----|
E|-55-555-7777---------------------------|

- Rest

OUTRO: (x1)
G|-------------------------|
D|-------------------------|
A|--------5----------5~----|
E|-5~---7---3~---5-7-------|
            
Submit corrections

comments powered by Disqus
↑ Back to top | Tokyo Police Club Bass for Centennial. Lyrics for acoustic guitar and electric guitar. Tablatures and chords are parodies/interpretations of the original songs. You may use it for private study, scholarship, research or language learning purposes only