» » »

Tokyo Police Club, Box Bass tabs (ver.1)

Artists:  A B C D E F G H I J K L M N O P Q R S T U V W X Y Z # 

Box Bass tabs (ver.1)

Tokyo Police Club Tabs
Rating:
0/5 (0 votes)
Box lessons Tabs too difficult? Try these video lessons and learn fast
                Tokyo Police Club
"Box"
Smith EP
Standard tuning
Cool kids only

"Ba ba baaa etc..." = Rest

Intro 00:21
G|--------------------------|
D|--------------------------|
A|----------/77-77-7-7-777--|
E|-5~-----------------------|

G|--------------------------|
D|--------------------------|
A|55555-55555---------------|X4
E|------------77777-77777---|

00:39 ("There's a good chance...)
G|--------------------------|
D|--------------------------|
A|--------------------------|X4
E|3~-------5~---------------|

G|--------------------------|
D|--------------------------|
A|/10(x4)------12(x4)-------|x4
E|--------------------------|
(Last repeat, play 12(x5) w/ diff. pattern)

1:03 ("Cuz I am a fake...")
E|--------------------------|
D|--------------------------|
A|5-555-4-444---------------|
E|------------7-777-5-555---|

G|--------------------------|
D|5-55-5-5-55-5-------------|
A|--------------------------|X2
E|--------------------------|
(Ending changes in note timing)

1:22
G|--------------------------|
D|--------------------------|
A|55555-55555---------------|X4
E|------------77777-77777---|

1:34 ("Colo(u)rs are bleeding...")
G|--------------------------|
D|--------------------------|
A|--------------------------|X4
E|3~-------5~---------------|

G|--------------------------|
D|--------------------------|
A|/10(x4)------12(x4)-------|x4
E|--------------------------|
(Last repeat, play 12(x5) w/ diff. pattern)

1:58 ("Cuz I am a fake...")
E|--------------------------|
D|--------------------------|
A|5-555-4-444---------------|
E|------------7-777-5-555---|

G|--------------------------|
D|5-55-5-5-55-5-------------|
A|--------------------------|X2
E|--------------------------|
(Second repeat, play each note as a quarter, no rests)

2:16
G|--------------------------|
D|--------------------------|
A|55555-55555---------------|X4
E|------------77777-77777---|

G|--------------------------|
D|--------------------------|
A|/1212121212---------------|
E|--------------------------|
(12 x 5, not 1 2 1 2 etc.)

END
            

comments powered by Disqus
↑ Back to top | Tokyo Police Club Bass for Box. Lyrics for acoustic guitar and electric guitar. Tablatures and chords are parodies/interpretations of the original songs. You may use it for private study, scholarship, research or language learning purposes only