» » »

To Die For, Veiled Tabs (ver.1)

Artists:  A B C D E F G H I J K L M N O P Q R S T U V W X Y Z # 

Veiled Tabs (ver.1)

To Die For Tabs
 Rating:
4/5 (4 votes)
Veiled lessons Tabs too difficult? Try these video lessons and learn fast
1
                -------------------------------------------------------------------------------
                             VEILED - To/Die/For
-------------------------------------------------------------------------------

Tuning: Standard



Piano melody:
e|-------------------------|
B|---------9-----7---------|
G|---6-----------------8---|
D|-------------------------|
A|-------------------------|
E|-------------------------|



Acoustic guitar melody:
e|-------------------------|
B|------9--7---------------|
G|---6-----------------8---|
D|---------------9---------|
A|-------------------------|
E|-------------------------|



Electric guitar melody after pick scr*pe:
e|-----------------------------------|
B|-----------------------------------|
G|---/9~-----/11~---8~----------6~---|
D|-------------------------9~--------|
A|-----------------------------------|
E|-----------------------------------|


e|-----------------------------------|
B|---/10~-----7~---9~----------------|
G|------------------------11~---9~---|
D|-----------------------------------|
A|-----------------------------------|
E|-----------------------------------|



I think the harmony e-guitar's 2nd bar is something
like this (but it's very hard to verify):
e|------------------------------------|
B|---/10~-----7~---9~-----12~---14~---|
G|------------------------------------|
D|------------------------------------|
A|------------------------------------|
E|------------------------------------|


************************************

| /   slide up
| ~   vibrato

************************************
            
Submit corrections

comments powered by Disqus
↑ Back to top | To Die For Tabs for Veiled. Lyrics for acoustic guitar and electric guitar. 1 Tablatures and chords are parodies/interpretations of the original songs. You may use it for private study, scholarship, research or language learning purposes only