» » »

To Die For, Veiled Bass tabs (ver.1)

Artists:  A B C D E F G H I J K L M N O P Q R S T U V W X Y Z # 

Veiled Bass tabs (ver.1)

To Die For Tabs
 Rating:
4/5 (4 votes)
Veiled lessons Tabs too difficult? Try these video lessons and learn fast
                -------------------------------------------------------------------------------
                              VEILED - To/Die/For
-------------------------------------------------------------------------------

Tuning: Standard



Verse & guitar solo:
("Cold wind blows again tonight, caressing total silence...")
G|----------------------------------------|
D|----------------------------------------|
A|---4----------4----------4----------4---|
E|----------------------------------------|



Chorus 1:
("In the moonlight our souls are free...")
G|-----------------------------------------|
D|-----------------------------------------|
A|---7----------11----------4----------4---|
E|-----------------------------------------| (x 2)



Verse 2:
("Frozen leaves for our bed and mist for a blanket...")
G|----------------------------------------|
D|----------------------------------------|
A|---4----------4----------4----------4---|
E|----------------------------------------|
  (x 8)      (x 8)      (x 8)      (x 8)



Chorus 2:
("In the moonlight our souls are free...")
G|-----------------------------------------|
D|-----------------------------------------|
A|---7----------11----------4----------4---|
E|-----------------------------------------|
  (x 8)       (x 8)      (x 8)      (x 8)


G|-----------------------------------------|
D|-----------------------------------------|
A|---7----------11----------4----------4---|
E|-----------------------------------------|
  (x 8)       (x 8)



Outro:
("Evil lives within our hearts where no blood resides...")
G|----------------------------------------|
D|----------------------------------------|
A|-------------------------4----------4---|
E|---5----------2-------------------------| (x 3)


G|----------------------------------------|
D|----------------------------------------|
A|------------------------------------4---|
E|---5----------2-------------------------|



| /  slide up
| \  slide down
| h  hammer-on
| p  pull-off
| ~  vibrato
| +  harmonic
| x  Mute note
===============================================================================
            
Submit corrections

comments powered by Disqus
↑ Back to top | To Die For Bass for Veiled. Lyrics for acoustic guitar and electric guitar. Tablatures and chords are parodies/interpretations of the original songs. You may use it for private study, scholarship, research or language learning purposes only