>
 >
Rimed With Frost

Rimed With Frost Guitar Tabs

To Die For - Rimed With Frost chords, tabs, tablatures, lyrics

Guitar lessons | Add/correct | Request | Top 50 tabs Artists:  A B C D E F G H I J K L M N O P Q R S T U V W X Y Z 0-9

Rimed With Frost Guitar Tabs – To Die For

CD, Sheet music, Poster

Do you like Rimed With Frost? Share with your friends now
Bass TabsTabs
-------------------------------------------------------------------------------
                          RIMED WITH FROST - To/Die/For
-------------------------------------------------------------------------------

Tuning: Drop C



Intro (before the drums enter):
D|-----------------------------------------------------------------|
A|-----------------------------------------------------------------|
F|---------------9---9---10--9-------------------------------------|
C|---7---7---7---9---9---10--9--7--10--3---3---3---3---3---3---5---|
G|---7---7---7---7---7----8--7--7--10--3---3---3---3---3---3---5---|
C|---7---7---7------------------7--10--3---3---3---3---3---3---5---|
PM   .   .   .       .              .  .   .   .   .   .   .


D|------------------------------------------------------------------|
A|------------------------------------------------------------------|
F|---------------9---9---10--9------------------7---7---4---4---5---|
C|---2---2---2---9---9---10--9--2---0---0---0---7---7---4---4---5---|
G|---2---2---2---7---7----8--7--2---0---0---0---5---5---2---2---3---|
C|---2---2---2------------------2---0---0---0-----------------------|
PM   .   .   .       .              .   .   .       .       .



Intro (when drums enter), rhytm guitar:
D|-----------------------------------------------------------------|
A|-----------------------------------------------------------------|
F|-----------10--10--9--9--7--9-----10---10---10---10---10--7--9---|
C|---7---7---10--10--9--9--7--9--7--10---10---10---10---10--7--9---|
G|---7---7----8---8--7--7--5--7--7---8----8----8----8----8--5--7---|
C|---7---7-----------------------7---------------------------------|
PM   .   .        .     .        .        .    .         .


D|----------------------------------------------------------|
A|----------------------------------------------------------|
F|-----------10--10--9--9--7--9--7--7--7--7---7--5---4--5---|
C|---7---7---10--10--9--9--7--9--7--7--7--7---7--5---4--5---|
G|---7---7----8---8--7--7--5--7--5--5--5--5---5--3---2--3---|
C|---7---7--------------------------------------------------|
PM   .   .        .     .        .  .  .      .      .




Intro (when drums enter), lead guitar:
D|---------------------------------------------------------------|
A|---------------------------------------------------------------|
F|---------------------------------------------------------------|
C|---9b10br9-------10--------10~---10/12-10~--9~\-------7~---9---|
G|-----------7---7----7-8~--------------------------7------------|
C|---------------------------------------------------------------| (x 2)



Bridge to verse (piano playing in the background), rhytm guitar:
D|----------------------------------------------------|
A|----------------------------------------------------|
F|----------------------------------------------------|
C|-----3-------7-------5-------3-------10--9--10------|
G|-----3-------7-------5-------3-------10--9--10------|
C|-----3-------7-------5-------3-------10--9--10--7---|
   (x 16)   (x 8)   (x 8)  (x 13)
PM     .       .       .       .



Bridge to verse (piano playing in the background), lead guitar:
D|-------------------------------------|---|
A|---------------------8---------------|---|
F|-----------------7------10--9--7h9---|---|
C|---7h9h10p7-9h10---9-----------------|-7-|
G|-------------------------------------|---|
C|-------------------------------------|---| (x 3)



Bridge to verse, piano:
D|-----------------15------------------------15---17---|
A|---10-----13-----------------10-----13---------------|
F|-----------------------------------------------------|
C|-----------------------------------------------------|
G|-----------------------------------------------------|
C|-----------------------------------------------------|



Verse, rhytm guitar:
("Summer is gone again, she is awaken from her sleep...")
("It is time to fly away, we are awaken from our sleep...")
D|------------------------------|
A|------------------------------|
F|------------------------------|
C|-----7-----15-----14-----12---|
G|-----7-----15-----14-----12---|
C|-----7-----15-----14-----12---| (x 2)
   (x 12)  (x 4)  (x 8)  (x 8)
PM     .      .      .      .



Pre-chorus, rhytm guitar:
("She gathers the cold under her wings...")
("Together we spread our wings again...")
D|----------------------------------------------------------|
A|----------------------------------------------------------|
F|----------------------------------------------------------|
C|-----7-----15-----14-----12--12--12--12--12--12--12--12---|
G|-----7-----15-----14-----12--12--12--12--12--12--12--12---|
C|-----7-----15-----14-----12--12--12--12--12--12--12--12---| (x 2)
   (x 12)  (x 4)  (x 8)
PM     .      .      .      .       .       .       .



Chorus:
("Among the cold and wind, her blue and frozen being...")
D|------------------------------------------------|
A|------------------------------------------------|
F|------------------------------------------------|
C|-----3-----2-----7-----2-----3-----7-----14-----|
G|-----3-----2-----7-----2-----3-----7-----14-----|
C|-----3-----2-----7-----2-----3-----7-----14-----|
    (x 8) (x 8) (x 8) (x 8) (x 8) (x 8) (x 16)



Chorus, continues:
("Among the cold and wind, through the glacier alone...")
Play the same notes as above, but all palm-muted.



Then bridge to verse, verse, pre-chorus and chorus again.



Break, clean guitar:
("I'm coming for you, take my icy hand...")
D|-----------------|
A|-----------------|
F|------10-----9---|
C|---7-------------|
G|-----------------|
C|-----------------| (x 8)



Then play "Intro (when drums enter)" and chorus again,
but this time NO palm-muting in chorus.



Outro, rhytm guitar:
D|------------------------|
A|------------------------|
F|------------------------|
C|-----7-----10-----2-----|
G|-----7-----10-----2-----|
C|-----7-----10-----2-----| (x 2)
    (x 8)  (x 8)(x 16)


D|-----------------------------------------|
A|-----------------------------------------|
F|-----------------------------------------|
C|-----7-----2-----7-----2-----2-2---7-----|
G|-----7-----2-----7-----2-----2-2---7-----|
C|-----7-----2-----7-----2-----2-2---7-----|
   (x 16)(x 16)(x 16)(x 16)



Outro, lead guitar (x 4):
D|----------------------------|
A|----------------------------|
F|----------------------------|
C|---/10---10-10-10-9~--------|
G|-----------------------7~---|
C|----------------------------| (x 2)


D|-----------------------------------------------|
A|-----------------------------------------------|
F|-----------------------------------------------|
C|---/10---10-10-10--9b10br9b10-9b10br9b10--9~---|
G|-----------------------------------------------|
C|-----------------------------------------------|



Then end the song by playing the first bar of outro only.



************************************

| /   slide up
| \   slide down
| h   hammer-on
| p   pull-off
| ~   vibrato
| b   Bend
| br  Bend release

************************************





Comments


Popular To Die For tabs & chords
In Solitude Bass Tabs
Rimed With Frost Bass Tabs
Veiled Bass Tabs
In Solitude Tabs
Veiled Tabs


Song lyrics



↑ Back to top | Tablatures and chords are parodies/interpretations of the original songs. You may use it for private study, scholarship, research or language learning purposes only
© 2014 AZChords.com Contact us | Privacy policy | DMCA | Add/correct tabs | Request tabs | Top 50 tabs