» » »

To Die For, Rimed With Frost Bass tabs (ver.1)

Artists:  A B C D E F G H I J K L M N O P Q R S T U V W X Y Z # 

Rimed With Frost Bass tabs (ver.1)

To Die For Tabs
 Rating:
4/5 (4 votes)
Rimed With Frost lessons Tabs too difficult? Try these video lessons and learn fast
                -------------------------------------------------------------------------------
                          RIMED WITH FROST - To/Die/For
-------------------------------------------------------------------------------

Tuning: D tuning


Intro (when the drums enter):
F|----------------------------------------|
C|----------------------------------------|
G|------------------------------------5---|
D|---5----------1----------0--------------| (x 2)



Bridge to verse (piano playing in the background):
F|---------------------------------------------------------------|
C|---------------------------------------------------------------|
G|---------------------------------------------------------------|
D|-----1----------5----------0----------1----------1---0---1-----|
   (x 16)      (x 8)      (x 8)     (x 13)



Pre-chorus:
("She gathers the cold under her wings...")
("Together we spread our wings again...")
F|--------------------------------------------|
C|--------------------------------------------|
G|--------------------------------------5-----|
D|-----5----------1----------0----------------|
    (x 8)      (x 8)      (x 8)      (x 8)



Chorus:
("Among the cold and wind, her blue and frozen being...")
F|-----------------------------------------------------------------------------|
C|-----------------------------------------------------------------------------|
G|-----------------------------------------------------------------------------|
D|-----1----------0----------5----------0----------1----------5----------0-----| (x 2)
    (x 8)      (x 8)      (x 8)      (x 8)      (x 8)      (x 8)     (x 16)



Then bridge to verse, verse, pre-chorus and chorus again.



Break:
("I'm coming for you, take my icy hand...")
F|-------|
C|-------|
G|-------|
D|---5---|



Then play "Intro (when drums enter)", pre-chorus (without vocals) and chorus again.



Outro:
F|---------------------------------|
C|---------------------------------|
G|---------------------------------|
D|-----5----------8----------0-----| (x 2)
    (x 8)      (x 8)     (x 16)


F|----------------------|
C|----------------------|
G|----------------------|
D|-----5----------0-----| (x 2)
   (x 16)     (x 16)


F|-----------------|
C|-----------------|
G|-----------------|
D|---5---5-----5---|



| /  slide up
| \  slide down
| h  hammer-on
| p  pull-off
| ~  vibrato
| +  harmonic
| x  Mute note
===============================================================================
            
Submit corrections

comments powered by Disqus
↑ Back to top | To Die For Bass for Rimed With Frost. Lyrics for acoustic guitar and electric guitar. Tablatures and chords are parodies/interpretations of the original songs. You may use it for private study, scholarship, research or language learning purposes only