» » »

Todys Tabs (ver.1)

Artists:  A B C D E F G H I J K L M N O P Q R S T U V W X Y Z # 

Todys Tabs (ver.1)

Toby Turner
Rating:
5/5 (8 votes)

Hard to play? Try these video lessons and learn fast.
                (Theme)
   Tab By: Tyler Pursell & Josh Manion

   Tuning: Drop D (D,A,D,G,B,e)






  E   E  E  E   E   E  E  E   
E||-----------------------------|
B||-----------------------------|
G||-----------------------------|
D||---------0--5s—7-------------|
A||-----------------------7--5--|
D||--3s--5-----------0----------|


  E  E  E  E  E  E  E  E     E   E  E  E   E   E  Q     
--------------------------|----------------------------|
--------------------------|----------------------------|
--------------------------|----------------------------|
--------------3--0--------|---------0--5s--7s-----5----|
-----5--5-----------3--0--|-----------------------3----|
--------------------------|--3s--5-------------0-------|


  E  E  E  E  E  Q    E     E   E  E  E   E   E  E  E   
-------------------------|-----------------------------|
-------------------------|-----------------------------|
-------------------------|-----------------------------|
-----5--5-----7----------|---------0--5s—7-------------|
-----3--3-----5----------|-----------------------7--5--|
-------------------------|--3s--5------------0---------|


  E  E  E  E  E  E  E  E     E  E  E  E  E  E  E  E   
--------------------------|--------------------------|
--------------------------|--------------------------|
--------------------------|--------------------------|
--------------3--0--------|--------------------------|
-----5--5-----------3--0--|-----------------0--3--5--|
--------------------------|--3--5--0--3--5-----------|


  E  E  E  E  E  Q    E     
-------------------------|
-------------------------|
-------------------------|
--3----------------------|
--------3-----5----------|
-------------------------| x3

SOLO!!

      S S  S S  S S  S  S  S S  S S S  S S  S  
E||--10-8----8----------------------------10-8----
B||-------10---10-8-10-11-10-8-10--------------10-
G||-------------------------------9---------------
D||-----------------------------------------------
A||-----------------------------------------------
D||-----------------------------------------------


  S  S S  S  S  S S  S  S  S S  S S  S S  S  
--8----8-10-12-10-8-10--------10-8----8-------------------------|
----10-----------------------------10---10-8-10-11-10-8-10------|
-----------------------------------------------------------9----|
----------------------------------------------------------------|
----------------------------------------------------------------|
----------------------------------------------------------------|


        
   S  S S                                               
--------------------------------------------------------|
--11-10-8-----------------------------------------------|
-----------10-9-------10-9------------------------------|
----------------10---------10--12-----------------------|
--------------------------------------------------------|
--------------------------------------------------------|

Duration Legend
---------------
W - whole
H - half
Q - quarter
E - 8th
S - 16th
T - 32nd
X - 64th
. - note dotted
|-n-|  - n-tuplets


Tablature Legend
----------------
L - tied note
x - dead note
g - grace note
(n) - ghost note
> - accentuded note
NH - natural harmonic
AH - artificial harmonic
TH - tapped harmonic
SH - semi harmonic
PH - pitch harmonic
h - hammer on
p - pull off
b - bend
br - bendRelease
pb - preBend
pbr - preBendRelease
brb - bendReleaseBend
\n/ - tremolo bar dip
\n - tremolo bar dive
-/n - tremolo bar Release up
/n\ - tremolo bar inverted dip
/n - tremolo bar return
-\n - tremolo bar Release down
S - shift slide
s - legato slide
/ -  slide into from below or out of upwards
\ -  slide into from above or out of downwards
~ - vibrato
W - wide vibrato
tr - trill
TP - tremolo picking
T - tapping
S - slap
P - pop
< - fade in
^ - brush up
v - brush down
            
Hard to play? Try these video lessons and learn fast. | Correct




comments powered by Disqus
↑ Back to top | Tablatures and chords are parodies/interpretations of the original songs. You may use it for private study, scholarship, research or language learning purposes only