» » »

Mmm Tabs (ver.1)

Artists:  A B C D E F G H I J K L M N O P Q R S T U V W X Y Z # 

Mmm Tabs (ver.1)

Toby Turner
Rating:
0/5 (0 votes)

Hard to play? Try these video lessons and learn fast.
                -------------------------------------------------------------------------------
                                 MMM! by Toby Turner
-------------------------------------------------------------------------------

"This song is called... MMM! It's not."

Tuning: Standard

************************************

| /   slide up
| \   slide down
| h   hammer-on
| p   pull-off
| ~   let ring

************************************

e|---------------------------------------------------------------------------|
B|---------------------------------------------------------------------------|
G|---------------------------------2-----------------------------------------|
D|---2h3p2-0---0-2-----2h3p2-0---0-------2h3p2-0---0-2-----0---0---0---0-----| x2
A|-0---------3-----0-0---------3-----0-0---------3-----0-----2---3---2-------|
E|-------------------------------------------------------3-------------------|

e|---------------------------------------------------------------------------|
B|---------------------------------------------------------------------------|
G|---4h5p4-2-0---------4h5p4-2-0-----2---4h5p4-2-0---------------------------|
D|-------------4-0-2-------------4-0---------------4-0-2---0---0---0---0-----| x2
A|-0-----------------0-----------------0---------------------2---3---2-------|
E|-------------------------------------------------------3-------------------|

e|-----------------------------0---------------------------------------------|
B|---------------------------------------------------------------------------|
G|----------------------2----------------------------------------------------|
D|---0---0---0---0-----2-----------------------------------------------------|
A|-----2---3---2------0------------------------------------------------------|
E|-3-----------------0-------------------------------------------------------|

I'm not too sure about the ending so I'll just leave it like that. If someone can figure 
out the chords, I'd love to add them.
LyyyyyyyrrriiiiihIIIIIIICS!
            
Hard to play? Try these video lessons and learn fast. | Correct




comments powered by Disqus
↑ Back to top | Tablatures and chords are parodies/interpretations of the original songs. You may use it for private study, scholarship, research or language learning purposes only