» » »

Toby Turner, Assassins Creed Brotherhood Literal Trailer Tabs (ver.1)

Artists:  A B C D E F G H I J K L M N O P Q R S T U V W X Y Z # 

Assassins Creed Brotherhood Literal Trailer Tabs (ver.1)

Toby Turner Tabs
 Rating:
4/5 (5 votes)
Assassins Creed Brotherhood Literal Trailer lessons Tabs too difficult? Try these video lessons and learn fast
1
                
Standard Tuning

I'm 95% sure this is all right. Sorry I don't have the harmonies in Toby's vocals.

|-------------------4-4-4-4-4-4-4-4/9-----------------------------3-3-3-3---|
|------------10-10----------------------------------------------------------|
|-----7-7-7 ----------------------------------------------------------------|
|---------------------------------------------------------------------------|
|-5-5----------------------------------3-3-3-3-3-3-3-3-5-6-5-3h5------------|
|---------------------------------------------------------------------------|


|---------------------------------------------------------------------------|
|---------------------------------------------------------------------------|
|---------------------------------------------------------------------------|
|---------------------------------------------------------------------------|
|---8-8-8-8-8-8h10-6-------10-10-10-10-10-10-10—8-8-8-8-8-8-8-10/11-11-11-11|
|-8------------------3-3-3--------------------------------------------------|


|---------------------------------------------------------------------------|
|---------------------------------------------------------------------------|
|---------------------------------------------------------------------------|
|---------------------------------------------------------------------------|
|-11-11-11-10-10-10-10-10-10---3-3-3-3-3-3-3-3-(from a distance)-3-3-3-3-3-3|
|---------------------------------------------------------------------------|


|---------------------------------------------------------------------------|
|---------------------------------------------------------------------------|
|---------------------------------------------------------------------------|
|---------------------------------------------------------------------------|
|-3h5p3-6-6-6-6-5-5-5-5-6-5-8-8-8-8-6-6-6-6-8-6-10-10-10-10-8-8-10-11-11-11-|
|---------------------------------------------------------------------------|


|---------------------------------------------------------------------------|
|---------------------------------------------------------------------------|
|-------------------------------8-8-8-8-7-7-7-7-8-7-10-10-10-10-10-10-------|
|---------------------------------------------------------------------------|
|-11-11-11-11-10-10-11-10-15------------------------------------------------|
|---------------------------------------------------------------------------|


|---------------------------------------------------------------------------|
|--------------------------------------------------------------11/13-13-----|
|-8-8-8-10-8-8-8/12-12--12-12-12-12-10-10-10-12-13-13-13-12-12--------------|
|---------------------------------------------------------------------------|
|---------------------------------------------------------------------------|
|---------------------------------------------------------------------------|


|---------------------------------------------------------------------------|
|---------------------------------------------------------------------------|
|----------------------5-8-7-5-5-5-5-4-4-5-5-8-5-5-5-4-4-5-5-8-5--5-5-12-12-|
|---------------------------------------------------------------------------|
|-3-3/10-10-10-10/3-3-------------------------------------------------------|
|---------------------------------------------------------------------------|




|---------------------------------------------------------------------------|
|---------------------------------------------------------------------------|
|-8-8-10-5--5-5-12-12-8-8-10-5--(ooh I love birds!)-------------------------|
|---------------------------------------------------------------------------|
|----------------------------------------------------3-3-3-2-2-3-3-6--------|
|---------------------------------------------------------------------------|


|---------------------------------------------------------------------------|
|---------------------------------------------------------------------------|
|-----------------------------------------------5-5-4-4-5-5-5-8-------------|
|---------------------------------------------------------------------------|
|-3-3-2-3-3-6--3-3-5-5-6-6--6-8--3-3-3-3-3-3--------------------------------|
|---------------------------------------------------------------------------|


|---------------------------------------------------------------------------|
|-------------------9-9-9-11-9----------------------------------------------|
|-5-5-4-4-4-5-5-5-7---------------------------------------------------------|
|---------------------------------------------------------------------------|
|---------------------------------------------------------------6-4-6-7-6-7-|
|-------------------------------4-4-4-4-4-6-6-4-6-6-7-6-7-9-7-9-------------|


|---------------------------------------------------------------------------|
|---------------------------------------------------------------------------|
|---------------------------------------------------------------------------|
|---------------------------------------------------------------------------|
|-9-7-9-10-8-10-11-10-11-11-10-11-13-11-13-(not sure why)--6-4-6-7-6-7------|
|---------------------------------------------------------------------------|


|------------------------------------------6--------------------------------|
|---------------------------------------------------------------------------|
|--------------------4-3-6-4-8-8-6-6-9-8-8----------------------------------|
|---------------------------------------------------------------------------|
|-2-1-4-2-6-4-7-9-----------------------------------------------------------|
|---------------------------------------------------------------------------|
            
Submit corrections

comments powered by Disqus
↑ Back to top | Toby Turner Tabs for Assassins Creed Brotherhood Literal Trailer. Lyrics for acoustic guitar and electric guitar. 1 Tablatures and chords are parodies/interpretations of the original songs. You may use it for private study, scholarship, research or language learning purposes only