» » »

Wished I Didnt Know Now Chords (ver.1)

Artists:  A B C D E F G H I J K L M N O P Q R S T U V W X Y Z # 

Wished I Didnt Know Now Chords (ver.1)

Toby Keith
Rating:
0/5 (0 votes)

Hard to play? Try these video lessons and learn fast.
                Key:D

Intro: D    C  G/B  Am7  G


Verse 1
 N.C                         G
I never ask you where your going,

                         D/E    Em
I never ask where you been

                                  G
I never called to check your stories,

                                     D/E     Em
While you stayed out with all your friends,

                            C
I never tried to catch you lyin'

                            D
I didn't want to know the truth,

                          C       D
I'd rather go on lovin' blind girl

                           G
then go on livin' without you


(chorus)
                        C                         D
I wished I didn't know now what I didn't know then,

                    G
I wished I could start this whole thing over again,

                     A7                      D
I'm not saying that you ain't never been true

                       Em
I just don't want to know how it ends,

                     C                          D
You'd still have my heart in the palm of your hands,

     D/C               Bm7                        Em7
I'd still look like a fool in front of your friends,

      Am7              Bm                C
Oh I wished somehow I didn't know now,

        D            G
what I didn't know then,

                 (INSTURMENTAL: Repeat intro Chords )



(Verse 2)

N.C                            G
I've always said what I don't know

                                  D/E       Em
couldn't hurt as bad as leaving you

                                G
turns out I knew what I was thinking

                     D/E     Em
it an easy thing to do

                         C
oh I guess I should be goin'

                               D
I sure found out too much to stay,

                        C         D
please don't say your sorry,

                      G
I might wait another day,


(CHORUS)

(INSTURMENTAL...PLAY SOLO BELOW)

                       C                         D
Ahh you still have my heart in the palm of your hand

      D/C              Bm7                         Em7
I'd still look like a fool in front of your friends

       Am7             Bm               C
yea I wish somehow I didn't know now

        D            G
what I didn't know then,
       A7             G/B              C
yea I wish somehow I didn't know now

        D            G
what I didn't know then

(SOLO)
E --------------------------------------------------------------------8---|
B --------8-13b(15)-12-10----13(15)-12-10-------------------8-10b(12)-----|
G ----7/9-----------------12--------------11-12-----------7---------------|
D ----------------------------------------------12\10\9-5-----------------|
A ------------------------------------------------------------------------|
E ------------------------------------------------------------------------|

E --------------------------------------------------12--------------------|
B --10b(12)-10b(12)-p8---8-8\7-------------------12-12--------------------|
G ---------------------9-------9-7-9-7---9\11\12--------------------------|
D -------------------------------------9----------------------------------|
A ------------------------------------------------------------------------|
E ------------------------------------------------------------------------|
            
Hard to play? Try these video lessons and learn fast. | Correct




comments powered by Disqus
↑ Back to top | Tablatures and chords are parodies/interpretations of the original songs. You may use it for private study, scholarship, research or language learning purposes only