» » »

Toby Keith, My List Tabs (ver.1)

Artists:  A B C D E F G H I J K L M N O P Q R S T U V W X Y Z # 

My List Tabs (ver.1)

Toby Keith Tabs
Rating:
0/5 (0 votes)
My List lessons Tabs too difficult? Try these video lessons and learn fast
                
INTRO PATTERN (repeat as necessary)

E--2-------0----------2----------|
B-----3-----------3-----3--------|
G------2-----2-----4----------2--|
D--0-4--4---2-2-----4----4---2---|
A----------4---4--2----2----0----|
E--------------------------------|


VERSE PATTERN


E--2-------0----------2-------------5---5---------2--2h3---------
B-----3-----------3-----3---2------3-3---3-3-----5--5----5----3--
G------2-----2-----4---------2----2---------2---4------------2---
D--0-4--4---2-2-----4----4----2--5------4-4----2---2-2--2---0----
A----------4---4--2----2----0------------------------------------
E----------------------------------------------------------------

 
E-----5---5---------2--3------------0--------------------------
B----3-----3-3-----5---------3----2--2--3---3--2--2---2-----3--
G---4---------2---4-----4---2----2-------2-2-----2-----2---2---
D--5---5--4-4----2---2-2---0-------2------5-----5--5------5----
A-------------------------------4-------2------0------0--------
E--------------------------------------------------------------


E-----5---5--5---5---5-------------------------------2---2----|
B----3-3---3--3---3---3--2-------2--3--3---3--3-----3-3--3----|
G---2-------2------2-------2----0----4--4---4--4---2-----2----|
D--4------5------5--5-----2----2------4------4----4------4----|
A------------------------0----1-----2------0------------------|
E-------------------------------------------------------------|
            

comments powered by Disqus
↑ Back to top | Toby Keith Tabs for My List. Lyrics for acoustic guitar and electric guitar. Tablatures and chords are parodies/interpretations of the original songs. You may use it for private study, scholarship, research or language learning purposes only