» » »

Made In America Bass tabs (ver.1)

Artists:  A B C D E F G H I J K L M N O P Q R S T U V W X Y Z # 

Made In America Bass tabs (ver.1)

Toby Keith
Rating:
0/5 (0 votes)

Tabs too difficult? Try these video lessons and learn fast.
                (Come in at 0:36, then repeat at 1:25)
|-----------------------------------------------------------------------------------|
|-----------------------------------------------------------------------------------|
|-----------------------------------------------------------------------------------|
|-----------------------------------------------------------------------------------|
|--7-7-7-7-7-7-7-7---------7-7-4-4-5-5--------7-7---4-5-5-------7-7-4-4-5-5---------|
|----------------------5-5----------------5-5-----2---------5-5-------------2-2-2-2-| (X2)

|---------------------------------------------------------------|
|---------------------------------------------------------------|
|---------------------------------------------------------------|
|---------------------------------------------------------------|
|--7-7-7-7-5-5---5-5----------------4-4---4-4---5-5-5-5-5-5-5-5-|
|----------------------5-5---5-5--------------------------------|

|-------------------------|
|-------------------------|
|-------------------------|
|-------------------------|
|-----------7------4------|
|----5--------------------|

|---------------------------------------------|
|---------------------------------------------|
|---------------------------------------------|
|---------------------------------------------|
|------7-7---4-5-5--------7-7-4-4-5-5---------|
|--5-5-----2----------5-5-------------2-2-2-2-|
            
Tabs too difficult? Try these video lessons and learn fast.




comments powered by Disqus
↑ Back to top | Tablatures and chords are parodies/interpretations of the original songs. You may use it for private study, scholarship, research or language learning purposes only