» » »

I Wanna Talk About Me (123) Tabs (ver.1)

Artists:  A B C D E F G H I J K L M N O P Q R S T U V W X Y Z # 

I Wanna Talk About Me (123) Tabs (ver.1)

Toby Keith
Rating:
5/5 (3 votes)

Tabs too difficult? Try these video lessons and learn fast.
                I Wanna talk about me; Toby Keith

I played this in drop D tuning. It’s more or less right; a bass player is needed to make 
verse sound cool! Haha…
(Playing E,C,D,B)
Anyways, its not too hard to play and it’s a wicked song, have fun!

Intro
E)-------------------------------------------------------------------|
B)-------------------------------------------------------------------|
G)----------------------------------------------7-5/7----------------|
D)-----------5---------------3-------------5----7-5/7----------------|
A)-----3-3/7----------1-1/5----------3-3/7------5-3/5----------------|
D)—3/7---------0-3/7-------------3/7---------------------------------|

E)-------------------------------------------------------------------|
B)-------------------------------------------------------------------|
G)----------------------------------------------7-5/3----------------|
D)-----------5---------------3-------------5----7-5/3----------------|
A)-----3-3/7----------1-1/5----------3-3/7------5-3/1----------------|
D)—3/7---------0-3/7-------------3/7---------------------------------|

Verse
Guitar 1
E)-------------------------------------------------------------------|
B)-----------------3-3-3-3-6-6-6-6-----------------------------------|
G)-5-5-5-5---------2-2-2-2-3-3-3-3-----------------------------------|
D)-3-3-3-3-2-2-2-2---------------------------------------------------|
A)---------3-3-3-3---------------------------------------------------|
D)-------------------------------------------------------------------|
X4

Guitar 2
E)-------------------------------------------------------------------|
B)-------------------------------------------------------------------|
G)---------5-5-5-5-7-7-7-7-3-3-3-3-----------------------------------|
D)-3-3-3-3-5-5-5-5-7-7-7-7-3-3-3-3-----------------------------------|
A)-3-3-3-3-3-3-3-3-5-5-5-5-1-1-1-1-----------------------------------|
D)-3-3-3-3-----------------------------------------------------------|
X4

Pre chorus

E)-------------------------------------------------------------------|
B)-------------------------------------------------------------------|
G)-------------------------------------------------------------------|
D)-5-5---------------------------------------------------------------|
A)-5-5---------------------------------------------------------------|
D)-5-3---------------------------------------------------------------|

E)-------------------------------------------------------------------|
B)-------------------------------------------------------------------|
G)----------7-7-3-3--------------------------------------------------|
D)--3-3-3-3-7-7-3-3--------------------------------------------------|
A)--3-3-3-3-5-5-1-1--------------------------------------------------|
D)--3-3-2-2-0-0------------------------------------------------------|

E)-------------------------------------------------------------------|
B)-------------------------------------------------------------------|
G)----------3--------------------------------------------------------|
D)--3-3-3-3-3--------------------------------------------------------|
A)--3-3-3-3-1--------------------------------------------------------|
D)--3-3-2-2----------------------------------------------------------|

E)-------------------------------------------------------------------|
B)-------------------------------------------------------------------|
G)----5--------------------------------------------------------------|
D)-5--5--------------------------------------------------------------|
A)-5--3--------------------------------------------------------------|
D)-5-----------------------------------------------------------------|

Chorus 1

E)-------------------------------------------------------------------|
B)-------------------------------------------------------------------|
G)----------------------------------------------7-5/3----------------|
D)-----------5---------------3-------------5----7-5/3----------------|
A)-----3-3/7----------1-1/5----------3-3/7------5-3/1----------------|
D)—3-3/7---------0-3/7-------------3/7-------------------------------|

Verse

Guitar 1
E)-------------------------------------------------------------------|
B)-----------------3-3-3-3-6-6-6-6-----------------------------------|
G)-5-5-5-5---------2-2-2-2-3-3-3-3-----------------------------------|
D)-3-3-3-3-2-2-2-2---------------------------------------------------|
A)---------3-3-3-3---------------------------------------------------|
D)-------------------------------------------------------------------|
X4

Guitar 2
E)-------------------------------------------------------------------|
B)-------------------------------------------------------------------|
G)---------5-5-5-5-7-7-7-7-3-3-3-3-----------------------------------|
D)-3-3-3-3-5-5-5-5-7-7-7-7-3-3-3-3-----------------------------------|
A)-3-3-3-3-3-3-3-3-5-5-5-5-1-1-1-1-----------------------------------|
D)-3-3-3-3-----------------------------------------------------------|
X4

Pre chorus

E)-------------------------------------------------------------------|
B)-------------------------------------------------------------------|
G)----5--------------------------------------------------------------|
D)-5--5--------------------------------------------------------------|
A)-5--3--------------------------------------------------------------|
D)-5-----------------------------------------------------------------|

E)-------------------------------------------------------------------|
B)-------------------------------------------------------------------|
G)----------7-7-3-3--------------------------------------------------|
D)--3-3-3-3-7-7-3-3--------------------------------------------------|
A)--3-3-3-3-5-5-1-1--------------------------------------------------|
D)--3-3-2-2-0-0------------------------------------------------------|

E)-------------------------------------------------------------------|
B)-------------------------------------------------------------------|
G)----------3--------------------------------------------------------|
D)--3-3-3-3-3--------------------------------------------------------|
A)--3-3-3-3-1--------------------------------------------------------|
D)--3-3-2-2----------------------------------------------------------|

E)-------------------------------------------------------------------|
B)-------------------------------------------------------------------|
G)----5--------------------------------------------------------------|
D)-5--5--------------------------------------------------------------|
A)-5--3--------------------------------------------------------------|
D)-5-----------------------------------------------------------------|

Chorus 2

E)----------------------------------------------------------------------|
B)----------------------------------------------------------------------|
G)----------------------------------------------------------------------|
D)----------------------------------------------------------------------|
A)-----3-0-----1--------------------------------------------------------|
D)-3-7-----0-0----------------------------------------------------------|

E)-------------------------------------------------------------------|
B)-------------------------------------------------------------------|
G)-------------------------------------------------------------------|
D)-------------------------------------------------------------------|
A)-----3-0-----------------------------------------------------------|
D)-3-7-----5-3-2-3---------------------------------------------------|

E)-------------------------------------------------------------------|
B)-------------------------------------------------------------------|
G)-------------------------------------------------------------------|
D)-------------------------------------------------------------------|
A)-----3-0-----------------------------------------------------------|
D)-3-7-----5-3-2-0---------------------------------------------------|

E)-------------------------------------------------------------------|
B)-------------------------------------------------------------------|
G)-------------------------------------------------------------------|
D)-------------------------------------------------------------------|
A)-----3-0-----------------------------------------------------------|
D)-3-7-----5-3-2-3---------------------------------------------------|

Bridge
you, you, you...etc
E)-------------------------------------------------------------------|
B)--6-6-6-6----------------------------------------------------------|
G)--5-5-5-5----------------------------------------------------------|
D)-------------------------------------------------------------------|
A)-------------------------------------------------------------------|
D)-------------------------------------------------------------------|
Played multiple times… I didn’t bother to count sorry... haha L

After bridge play

1.Pre chorus
2.End with Chorus 1 X2
            
Tabs too difficult? Try these video lessons and learn fast.




comments powered by Disqus
↑ Back to top | Tablatures and chords are parodies/interpretations of the original songs. You may use it for private study, scholarship, research or language learning purposes only