>
 >
Beer For My Horses 1

Beer For My Horses 1 Guitar Tabs

Toby Keith - Beer For My Horses 1 chords, tabs, tablatures, lyrics

Guitar lessons | Add/correct | Request | Top 50 tabs Artists:  A B C D E F G H I J K L M N O P Q R S T U V W X Y Z 0-9

Beer For My Horses 1 Guitar Tabs – Toby Keith

CD, Sheet music, Poster

Do you like Beer For My Horses 1? Share with your friends now
Bass TabsChordsChords v2Chords v3TabsTabs v2Ukulele
Intro:
e𧛲6---66---6----6            6----6---6---6
b𧛱4-------------              6----5---4----
g---------6-3---------3            ------------6
d---------------6------            --------------
a-----------------------            ------------
e-----------------------            ------------

e------------------------------------------------------
b-----------------------------------------------------
g-----------------------------------------------------
d11p-10p-8-----8---------------------------------
a------------------11--------11p-10p-8----8----------
e-------------------------------------------11-------


e----------------------6----6----6--6--6-6-6---8---10--
b----------------------6----8----8--6--6-6-6--10--11---
g----------------------7----8----8--7--8-8-7--10--10---
d----------------------8----8----8--8--6-6-8--10--12---
a----------------------8---6h8--6--8--8-8-8--8---13---
e---11p-9--4---6-------6---6-----6--6--6-6-6--8----x

chords:
Bb   Eb  Bb  F   Bb
Gm slide 3rd string 3-2-0   to F chord  - Bb
Bb   Eb   Bb  F   Bb
Gm slide 3rd string 3-2-0   to F chord  Bb

Chorus:
F      Eb   Bb
Eb    Bb   F  Bb
F      Eb   Bb
Ab    Eb/     Bb   repeat intro

e--------------13------13-----13---13-------------
b-------10/11------10-----11----11------13b/\ 11
g-----------------------------------------------------
d----------------------------------------------------
a----------------------------------------------------
e----------------------------------------------------





Comments


Popular Toby Keith tabs & chords
Courtesy Of The Red, White And Blue 2 Chords
Tired Chords
As Good As I Once Was Tabs
Red Solo Cup Intro Tabs
Who's That Man Tabs
Wish I Didn't Know Now Tabs
You Caught Me At A Bad Time Tabs
Big Bull Rider Ukulele
Getcha Some Ukulele
Hope On The Rocks Ukulele


Song lyrics



↑ Back to top | Tablatures and chords are parodies/interpretations of the original songs. You may use it for private study, scholarship, research or language learning purposes only
© 2014 AZChords.com Contact us | Privacy policy | DMCA | Add/correct tabs | Request tabs | Top 50 tabs