>
 >
Beer For My Horses

Beer For My Horses Guitar Tabs

Toby Keith - Beer For My Horses chords, tabs, tablatures, lyrics

Guitar lessons | Add/correct | Request | Top 50 tabs Artists:  A B C D E F G H I J K L M N O P Q R S T U V W X Y Z 0-9

Beer For My Horses Guitar Tabs – Toby Keith

CD, Sheet music, Poster

Do you like Beer For My Horses? Share with your friends now
Bass TabsChordsChords v2Chords v3TabsTabs v2Ukulele
Intro:
e𧛲6---6--6---6----6            6----6---6---6
b𧛱4------------------           6----5---4----
g---------6---3---------3            ------------6
d-----------------6------            ----------------
a-------------------------            --------------
e-------------------------            --------------

e---------------------------------------------------------
b--------------------------------------------------------
g-------------------------------------------------------------------6
d11p-10p-8-----8---------------------------------------------------6-----
a------------------11--------11p-10p-8---8------------------------4h6
e-------------------------------------------11------to Bb chord-to Eb root 5

chords:
Bb   Eb  Bb  F   Bb
Gm slide 3rd string 3-2-0   to F chord  - Bb
Bb   Eb   Bb  F   Bb
Gm slide 3rd string 3-2-0   to F chord  Bb

Chorus:
F      Eb   Bb
Eb    Bb   F  Bb
F      Eb   Bb
Ab    Eb/     Bb   repeat intro

this lead near end of song

e--------------13------13-----13---13-------------
b-------10/11------10-----11----11------13b/\ 11
g-----------------------------------------------------
d----------------------------------------------------
a----------------------------------------------------
e----------------------------------------------------





Comments


Popular Toby Keith tabs & chords
Angry American (capo) Chords
Hottie Chords
If I Had One Chords
Red Solo Cup 1 Chords
Somewhere Else 1 Chords
Star Kissed Chords
Wished I Didnt Know Now Chords
A Little Less Talk Tabs
The Critic (intro/baseline) Tabs
Who S Your Daddy Intro Tabs


Song lyrics



↑ Back to top | Tablatures and chords are parodies/interpretations of the original songs. You may use it for private study, scholarship, research or language learning purposes only
© 2014 AZChords.com Contact us | Privacy policy | DMCA | Add/correct tabs | Request tabs | Top 50 tabs