» » »

Toby Keith, Beer For My Horses Tabs (ver.1)

Artists:  A B C D E F G H I J K L M N O P Q R S T U V W X Y Z # 

Beer For My Horses Tabs (ver.1)

Toby Keith Tabs
 Rating:
4/5 (4 votes)
Beer For My Horses lessons Tabs too difficult? Try these video lessons and learn fast
                Intro:
e—6—6—6---6--—6---6----6            6----6---6---6
b—6—5—4------------------           6----5---4----
g---------6---3---------3            ------------6
d-----------------6------            ----------------
a-------------------------            --------------
e-------------------------            --------------

e---------------------------------------------------------
b--------------------------------------------------------
g-------------------------------------------------------------------6
d—11p-10p-8-----8---------------------------------------------------6-----
a------------------11--------11p-10p-8---8------------------------4h6
e-------------------------------------------11------to Bb chord-to Eb root 5

chords:
Bb   Eb  Bb  F   Bb
Gm slide 3rd string 3-2-0   to F chord  - Bb
Bb   Eb   Bb  F   Bb
Gm slide 3rd string 3-2-0   to F chord – Bb

Chorus:
F      Eb   Bb
Eb    Bb   F  Bb
F      Eb   Bb
Ab    Eb/     Bb   repeat intro

this lead near end of song

e--------------13------13-----13---13-------------
b-------10/11------10-----11----11------13b/\ 11
g-----------------------------------------------------
d----------------------------------------------------
a----------------------------------------------------
e----------------------------------------------------
            
Submit corrections

comments powered by Disqus
↑ Back to top | Toby Keith Tabs for Beer For My Horses. Lyrics for acoustic guitar and electric guitar. Tablatures and chords are parodies/interpretations of the original songs. You may use it for private study, scholarship, research or language learning purposes only