» » »

Toby Keith, Beer For My Horses Bass tabs (ver.1)

Artists:  A B C D E F G H I J K L M N O P Q R S T U V W X Y Z # 

Beer For My Horses Bass tabs (ver.1)

Toby Keith Tabs
 Rating:
4/5 (4 votes)
Beer For My Horses lessons Tabs too difficult? Try these video lessons and learn fast
                -------------------------------------------------------------------------------
-------------------------------------------------------------------------------

 

Tuning: Standard

Intro
G|-----------------|
D|-----0-----0-----|
A|--0-----0-----0--|
E|-----------------|

Verse (0:15)
G|--------------------------------|--------------------------------|
D|---0-----------0----------------|---0-----------0----------------|
A|-0---0-0---0-0---0-0---0-----0--|-0---0-0---0-0---0-0---0-----0--|
E|---------0-----------0---2-0----|---------0-----------0---2-0----|

Chorus (1:01)
G|------------------------------------------|
D|---0---0---------0---0---------0-----0----|
A|-----0---0---0-----0---0---0-0---0-----0--|
E|-0---------0---0---------0---------3------|

Verse (1:32)
G|--------------------------------|
D|---0-----------0----------------|
A|-0---0-0---0-0---0-0---0-----0--|
E|---------0-----------0---2-0----|

Chorus (1:55)
G|-----------------------------------0-----0------|
D|---0---0---------0---0---------0-----0-----0----|
A|-----0---0---0-----0---0---0-0---0-----0-----0--|
E|-0---------0---0---------0----------------------|

Bridge (2:26)
G|--------------|
D|---0----------|
A|-0---0-0---0--|
E|---------0----|

Chorus (2:41)
G|-----------------------------------0-----0------|
D|---0---0---------0---0---------0-----0-----0----|
A|-----0---0---0-----0---0---0-0---0-----0-----0--|
E|-0---------0---0---------0----------------------|

Ending (3:14)
G|------------|
D|---0---0----|
A|-0---0---0--|
E|------------|

An incredibly easy song, but plenty of ways to elaborate and improvise.
            
Submit corrections

comments powered by Disqus
↑ Back to top | Toby Keith Bass for Beer For My Horses. Lyrics for acoustic guitar and electric guitar. Tablatures and chords are parodies/interpretations of the original songs. You may use it for private study, scholarship, research or language learning purposes only