» » »

Toby Keith, As Good As I Once Was Bass tabs (ver.1)

Artists:  A B C D E F G H I J K L M N O P Q R S T U V W X Y Z # 

As Good As I Once Was Bass tabs (ver.1)

Toby Keith Tabs
Rating:
0/5 (0 votes)
As Good As I Once Was lessons Tabs too difficult? Try these video lessons and learn fast
                


Intro
|---------------|----------------------3-----|
|---------------|1--3---1-1-3---1-3----------|
|---------------|----------------------------|
|---------------|------5---------5-----------|

Verse I
|----------------|
|1--3------------|
|----------------|      3x
|-----5----------|

|5---------------|
|-----------3----|
|----------------|
|----------------|

Chorus I
|----------------|
|1--3------------|      3x
|----------------|
|-----5----------|

|----------------|
|1-----3--1------|
|----------------|
|------------5---|

Break
|----------------------3-----|
|1--3---1-1-3---1-3----------|
|----------------------------|
|------5---------5-----------|

Verse II
|----------------|
|1--3------------|
|----------------|      3x
|-----5----------|

|5---------------|
|-----------3----|
|----------------|
|----------------|

Chorus II
|----------------|
|1--3------------|      3x
|----------------|
|-----5----------|

|----------------|
|1-----3--1------|
|----------------|
|------------5---|

Bridge
|1--------------|
| -1-----------3|
|-----------2---|
|------5--------|

Chorus III
|----------------|
|1--3------------|      3x
|----------------|
|-----5----------|

|----------------|
|1-----3--1------|
|----------------|
|------------5---|

Turnaround
|----------------|
|1-----3--1------|
|----------------|
|------------5---|

Ending
|----------------------3-----|
|1--3---1-1-3---1-3----------|
|----------------------------|
|------5---------5-----------|
            

comments powered by Disqus
↑ Back to top | Toby Keith Bass for As Good As I Once Was. Lyrics for acoustic guitar and electric guitar. Tablatures and chords are parodies/interpretations of the original songs. You may use it for private study, scholarship, research or language learning purposes only